  0
SECTION
  2
HEADER
  9
$ACADVER
  1
AC1015
  9
$ACADMAINTVER
 70
     6
  9
$DWGCODEPAGE
  3
ANSI_1252
  9
$INSBASE
 10
0.0
 20
0.0
 30
0.0
  9
$EXTMIN
 10
0.0
 20
0.0
 30
0.0
  9
$EXTMAX
 10
1682.0
 20
2378.0
 30
0.0
  9
$LIMMIN
 10
0.0
 20
0.0
  9
$LIMMAX
 10
1682.0
 20
2378.0
  9
$ORTHOMODE
 70
     0
  9
$REGENMODE
 70
     1
  9
$FILLMODE
 70
     1
  9
$QTEXTMODE
 70
     0
  9
$MIRRTEXT
 70
     1
  9
$LTSCALE
 40
1.0
  9
$ATTMODE
 70
     1
  9
$TEXTSIZE
 40
2.5
  9
$TRACEWID
 40
1.0
  9
$TEXTSTYLE
  7
Standard
  9
$CLAYER
  8
0
  9
$CELTYPE
  6
ByLayer
  9
$CECOLOR
 62
   256
  9
$CELTSCALE
 40
1.0
  9
$DISPSILH
 70
     0
  9
$DIMSCALE
 40
1.0
  9
$DIMASZ
 40
2.5
  9
$DIMEXO
 40
0.625
  9
$DIMDLI
 40
3.75
  9
$DIMRND
 40
0.0
  9
$DIMDLE
 40
0.0
  9
$DIMEXE
 40
1.25
  9
$DIMTP
 40
0.0
  9
$DIMTM
 40
0.0
  9
$DIMTXT
 40
2.5
  9
$DIMCEN
 40
2.5
  9
$DIMTSZ
 40
0.0
  9
$DIMTOL
 70
     0
  9
$DIMLIM
 70
     0
  9
$DIMTIH
 70
     0
  9
$DIMTOH
 70
     0
  9
$DIMSE1
 70
     0
  9
$DIMSE2
 70
     0
  9
$DIMTAD
 70
     1
  9
$DIMZIN
 70
     8
  9
$DIMBLK
  1

  9
$DIMASO
 70
     1
  9
$DIMSHO
 70
     1
  9
$DIMPOST
  1

  9
$DIMAPOST
  1

  9
$DIMALT
 70
     0
  9
$DIMALTD
 70
     3
  9
$DIMALTF
 40
0.0393700787
  9
$DIMLFAC
 40
1.0
  9
$DIMTOFL
 70
     1
  9
$DIMTVP
 40
0.0
  9
$DIMTIX
 70
     0
  9
$DIMSOXD
 70
     0
  9
$DIMSAH
 70
     0
  9
$DIMBLK1
  1

  9
$DIMBLK2
  1

  9
$DIMSTYLE
  2
ISO-25
  9
$DIMCLRD
 70
     0
  9
$DIMCLRE
 70
     0
  9
$DIMCLRT
 70
     0
  9
$DIMTFAC
 40
1.0
  9
$DIMGAP
 40
0.625
  9
$DIMJUST
 70
     0
  9
$DIMSD1
 70
     0
  9
$DIMSD2
 70
     0
  9
$DIMTOLJ
 70
     0
  9
$DIMTZIN
 70
     8
  9
$DIMALTZ
 70
     0
  9
$DIMALTTZ
 70
     0
  9
$DIMUPT
 70
     0
  9
$DIMDEC
 70
     2
  9
$DIMTDEC
 70
     2
  9
$DIMALTU
 70
     2
  9
$DIMALTTD
 70
     3
  9
$DIMTXSTY
  7
Standard
  9
$DIMAUNIT
 70
     0
  9
$DIMADEC
 70
     0
  9
$DIMALTRND
 40
0.0
  9
$DIMAZIN
 70
     0
  9
$DIMDSEP
 70
    44
  9
$DIMATFIT
 70
     3
  9
$DIMFRAC
 70
     0
  9
$DIMLDRBLK
  1

  9
$DIMLUNIT
 70
     2
  9
$DIMLWD
 70
    -2
  9
$DIMLWE
 70
    -2
  9
$DIMTMOVE
 70
     0
  9
$LUNITS
 70
     2
  9
$LUPREC
 70
     4
  9
$SKETCHINC
 40
1.0
  9
$FILLETRAD
 40
10.0
  9
$AUNITS
 70
     0
  9
$AUPREC
 70
     0
  9
$MENU
  1
.
  9
$ELEVATION
 40
0.0
  9
$PELEVATION
 40
0.0
  9
$THICKNESS
 40
0.0
  9
$LIMCHECK
 70
     0
  9
$CHAMFERA
 40
10.0
  9
$CHAMFERB
 40
10.0
  9
$CHAMFERC
 40
20.0
  9
$CHAMFERD
 40
0.0
  9
$SKPOLY
 70
     0
  9
$TDCREATE
 40
2455482.371145486
  9
$TDUCREATE
 40
2455482.287812153
  9
$TDUPDATE
 40
2455482.371145498
  9
$TDUUPDATE
 40
2455482.287812165
  9
$TDINDWG
 40
0.0000000116
  9
$TDUSRTIMER
 40
0.0000000116
  9
$USRTIMER
 70
     1
  9
$ANGBASE
 50
0.0
  9
$ANGDIR
 70
     0
  9
$PDMODE
 70
     0
  9
$PDSIZE
 40
0.0
  9
$PLINEWID
 40
0.0
  9
$SPLFRAME
 70
     0
  9
$SPLINETYPE
 70
     6
  9
$SPLINESEGS
 70
     8
  9
$HANDSEED
  5
11C
  9
$SURFTAB1
 70
     6
  9
$SURFTAB2
 70
     6
  9
$SURFTYPE
 70
     6
  9
$SURFU
 70
     6
  9
$SURFV
 70
     6
  9
$UCSBASE
  2

  9
$UCSNAME
  2

  9
$UCSORG
 10
0.0
 20
0.0
 30
0.0
  9
$UCSXDIR
 10
1.0
 20
0.0
 30
0.0
  9
$UCSYDIR
 10
0.0
 20
1.0
 30
0.0
  9
$UCSORTHOREF
  2

  9
$UCSORTHOVIEW
 70
     0
  9
$UCSORGTOP
 10
0.0
 20
0.0
 30
0.0
  9
$UCSORGBOTTOM
 10
0.0
 20
0.0
 30
0.0
  9
$UCSORGLEFT
 10
0.0
 20
0.0
 30
0.0
  9
$UCSORGRIGHT
 10
0.0
 20
0.0
 30
0.0
  9
$UCSORGFRONT
 10
0.0
 20
0.0
 30
0.0
  9
$UCSORGBACK
 10
0.0
 20
0.0
 30
0.0
  9
$PUCSBASE
  2

  9
$PUCSNAME
  2

  9
$PUCSORG
 10
0.0
 20
0.0
 30
0.0
  9
$PUCSXDIR
 10
1.0
 20
0.0
 30
0.0
  9
$PUCSYDIR
 10
0.0
 20
1.0
 30
0.0
  9
$PUCSORTHOREF
  2

  9
$PUCSORTHOVIEW
 70
     0
  9
$PUCSORGTOP
 10
0.0
 20
0.0
 30
0.0
  9
$PUCSORGBOTTOM
 10
0.0
 20
0.0
 30
0.0
  9
$PUCSORGLEFT
 10
0.0
 20
0.0
 30
0.0
  9
$PUCSORGRIGHT
 10
0.0
 20
0.0
 30
0.0
  9
$PUCSORGFRONT
 10
0.0
 20
0.0
 30
0.0
  9
$PUCSORGBACK
 10
0.0
 20
0.0
 30
0.0
  9
$USERI1
 70
     0
  9
$USERI2
 70
     0
  9
$USERI3
 70
     0
  9
$USERI4
 70
     0
  9
$USERI5
 70
     0
  9
$USERR1
 40
0.0
  9
$USERR2
 40
0.0
  9
$USERR3
 40
0.0
  9
$USERR4
 40
0.0
  9
$USERR5
 40
0.0
  9
$WORLDVIEW
 70
     1
  9
$SHADEDGE
 70
     3
  9
$SHADEDIF
 70
    70
  9
$TILEMODE
 70
     1
  9
$MAXACTVP
 70
    64
  9
$PINSBASE
 10
0.0
 20
0.0
 30
0.0
  9
$PLIMCHECK
 70
     0
  9
$PEXTMIN
 10
0.0
 20
0.0
 30
0.0
  9
$PEXTMAX
 10
1682.0
 20
2378.0
 30
0.0
  9
$PLIMMIN
 10
0.0
 20
0.0
  9
$PLIMMAX
 10
1682.0
 20
2378.0
  9
$UNITMODE
 70
     0
  9
$VISRETAIN
 70
     1
  9
$PLINEGEN
 70
     0
  9
$PSLTSCALE
 70
     1
  9
$TREEDEPTH
 70
  3020
  9
$CMLSTYLE
  2
Standard
  9
$CMLJUST
 70
     0
  9
$CMLSCALE
 40
20.0
  9
$PROXYGRAPHICS
 70
     1
  9
$MEASUREMENT
 70
     1
  9
$CELWEIGHT
370
    -1
  9
$ENDCAPS
280
     0
  9
$JOINSTYLE
280
     0
  9
$LWDISPLAY
290
     0
  9
$INSUNITS
 70
     4
  9
$HYPERLINKBASE
  1

  9
$STYLESHEET
  1

  9
$XEDIT
290
     1
  9
$CEPSNTYPE
380
     0
  9
$PSTYLEMODE
290
     1
  9
$FINGERPRINTGUID
  2
{957254EA-7A79-439D-A757-F37DC0C20794}
  9
$VERSIONGUID
  2
{FAEB1C32-E019-11D5-929B-00C0DF256EC4}
  9
$EXTNAMES
290
     1
  9
$PSVPSCALE
 40
0.0
  9
$OLESTARTUP
290
     0
  0
ENDSEC
  0
SECTION
  2
CLASSES
  0
CLASS
  1
ACDBDICTIONARYWDFLT
  2
AcDbDictionaryWithDefault
  3
ObjectDBX Classes
 90
        0
280
     0
281
     0
  0
CLASS
  1
VISUALSTYLE
  2
AcDbVisualStyle
  3
ObjectDBX Classes
 90
     4095
280
     0
281
     0
  0
CLASS
  1
SCALE
  2
AcDbScale
  3
ObjectDBX Classes
 90
     1153
280
     0
281
     0
  0
CLASS
  1
DICTIONARYVAR
  2
AcDbDictionaryVar
  3
ObjectDBX Classes
 90
        0
280
     0
281
     0
  0
CLASS
  1
ACDBPLACEHOLDER
  2
AcDbPlaceHolder
  3
ObjectDBX Classes
 90
        0
280
     0
281
     0
  0
CLASS
  1
LAYOUT
  2
AcDbLayout
  3
ObjectDBX Classes
 90
        0
280
     0
281
     0
  0
ENDSEC
  0
SECTION
  2
TABLES
  0
TABLE
  2
VPORT
  5
8
330
0
100
AcDbSymbolTable
 70
     1
  0
VPORT
  5
29
330
8
100
AcDbSymbolTableRecord
100
AcDbViewportTableRecord
  2
*Active
 70
     0
 10
0.0
 20
0.0
 11
1.0
 21
1.0
 12
344.1869158879
 22
148.5
 13
0.0
 23
0.0
 14
10.0
 24
10.0
 15
10.0
 25
10.0
 16
0.0
 26
0.0
 36
1.0
 17
0.0
 27
0.0
 37
0.0
 40
297.0
 41
1.9729729729
 42
50.0
 43
0.0
 44
0.0
 50
0.0
 51
0.0
 71
     0
 72
   100
 73
     1
 74
     3
 75
     0
 76
     0
 77
     0
 78
     0
281
     0
 65
     1
110
0.0
120
0.0
130
0.0
111
1.0
121
0.0
131
0.0
112
0.0
122
1.0
132
0.0
 79
     0
146
0.0
  0
ENDTAB
  0
TABLE
  2
LTYPE
  5
5
330
0
100
AcDbSymbolTable
 70
     2
  0
LTYPE
  5
14
330
5
100
AcDbSymbolTableRecord
100
AcDbLinetypeTableRecord
  2
ByBlock
 70
     0
  3

 72
    65
 73
     0
 40
0.0
  0
LTYPE
  5
15
330
5
100
AcDbSymbolTableRecord
100
AcDbLinetypeTableRecord
  2
ByLayer
 70
     0
  3

 72
    65
 73
     0
 40
0.0
  0
LTYPE
  5
16
330
5
100
AcDbSymbolTableRecord
100
AcDbLinetypeTableRecord
  2
Continuous
 70
     0
  3
Solid line
 72
    65
 73
     0
 40
0.0
  0
LTYPE
  5
60
330
5
100
AcDbSymbolTableRecord
100
AcDbLinetypeTableRecord
  2
CENTER2
 70
     0
  3
Center (.5x) ___ _ ___ _ ___ _ ___ _ ___ _ ___
 72
    65
 73
     4
 40
28.575
 49
19.05
 74
     4
 75
     0
340
0
 46
0.0
 50
0.0
 44
0.0
 45
0.0
 49
-3.175
 74
     4
 75
     0
340
0
 46
0.0
 50
0.0
 44
0.0
 45
0.0
 49
3.175
 74
     4
 75
     0
340
0
 46
0.0
 50
0.0
 44
0.0
 45
0.0
 49
-3.175
 74
     4
 75
     0
340
0
 46
0.0
 50
0.0
 44
0.0
 45
0.0
  0
ENDTAB
  0
TABLE
  2
LAYER
  5
2
330
0
100
AcDbSymbolTable
 70
     7
  0
LAYER
  5
10
330
2
100
AcDbSymbolTableRecord
100
AcDbLayerTableRecord
  2
0
 70
     0
 62
     7
  6
Continuous
370
    -3
390
F
  0
LAYER
  5
5D
330
2
100
AcDbSymbolTableRecord
100
AcDbLayerTableRecord
  2
Default
 70
     0
 62
     7
  6
Continuous
370
    -3
390
F
  0
LAYER
  5
77
330
2
100
AcDbSymbolTableRecord
100
AcDbLayerTableRecord
  2
$DDT_AUDIT_GENERATED_(77)
 70
     0
 62
     7
  6
Continuous
370
    -3
390
F
  0
LAYER
  5
97
330
2
100
AcDbSymbolTableRecord
100
AcDbLayerTableRecord
  2
$DDT_AUDIT_GENERATED_(97)
 70
     0
 62
     7
  6
Continuous
370
    -3
390
F
  0
LAYER
  5
9F
330
2
100
AcDbSymbolTableRecord
100
AcDbLayerTableRecord
  2
$DDT_AUDIT_GENERATED_(9F)
 70
     0
 62
     7
  6
Continuous
370
    -3
390
F
  0
LAYER
  5
A5
330
2
100
AcDbSymbolTableRecord
100
AcDbLayerTableRecord
  2
$DDT_AUDIT_GENERATED_(A5)
 70
     0
 62
     7
  6
Continuous
370
    -3
390
F
  0
LAYER
  5
B3
330
2
100
AcDbSymbolTableRecord
100
AcDbLayerTableRecord
  2
$DDT_AUDIT_GENERATED_(B3)
 70
     0
 62
     7
  6
Continuous
370
    -3
390
F
  0
ENDTAB
  0
TABLE
  2
STYLE
  5
3
330
0
100
AcDbSymbolTable
 70
     2
  0
STYLE
  5
11
330
3
100
AcDbSymbolTableRecord
100
AcDbTextStyleTableRecord
  2
Standard
 70
     0
 40
0.0
 41
1.0
 50
0.0
 71
     0
 42
2.5
  3
txt
  4

  0
STYLE
  5
10B
330
3
100
AcDbSymbolTableRecord
100
AcDbTextStyleTableRecord
  2
SEACAD_seiso_ttf
 70
     0
 40
0.0
 41
1.0
 50
0.0
 71
     0
 42
0.2
  3
seiso.ttf
  4

  0
ENDTAB
  0
TABLE
  2
VIEW
  5
6
330
0
100
AcDbSymbolTable
 70
     0
  0
ENDTAB
  0
TABLE
  2
UCS
  5
7
330
0
100
AcDbSymbolTable
 70
     0
  0
ENDTAB
  0
TABLE
  2
APPID
  5
9
330
0
100
AcDbSymbolTable
 70
     1
  0
APPID
  5
12
330
9
100
AcDbSymbolTableRecord
100
AcDbRegAppTableRecord
  2
ACAD
 70
     0
  0
ENDTAB
  0
TABLE
  2
DIMSTYLE
  5
A
330
0
100
AcDbSymbolTable
 70
     1
100
AcDbDimStyleTable
  0
DIMSTYLE
105
27
330
A
100
AcDbSymbolTableRecord
100
AcDbDimStyleTableRecord
  2
ISO-25
 70
     0
 41
2.5
 42
0.625
 43
3.75
 44
1.25
 73
     0
 74
     0
 77
     1
 78
     8
140
2.5
141
2.5
143
0.0393700787
147
0.625
171
     3
172
     1
271
     2
272
     2
274
     3
278
    44
283
     0
284
     8
340
11
  0
ENDTAB
  0
TABLE
  2
BLOCK_RECORD
  5
1
330
0
100
AcDbSymbolTable
 70
     7
  0
BLOCK_RECORD
  5
1F
330
1
100
AcDbSymbolTableRecord
100
AcDbBlockTableRecord
  2
*Model_Space
340
22
  0
BLOCK_RECORD
  5
1B
330
1
100
AcDbSymbolTableRecord
100
AcDbBlockTableRecord
  2
*Paper_Space
340
1E
  0
BLOCK_RECORD
  5
5E
330
1
100
AcDbSymbolTableRecord
100
AcDbBlockTableRecord
  2
SEANNOT_GROUP
340
0
102
{BLKREFS
331
5F
102
}
  0
BLOCK_RECORD
  5
69
330
1
100
AcDbSymbolTableRecord
100
AcDbBlockTableRecord
  2
SEANNOT_GROUP1
340
0
102
{BLKREFS
331
6A
102
}
  0
BLOCK_RECORD
  5
6F
330
1
100
AcDbSymbolTableRecord
100
AcDbBlockTableRecord
  2
SEANNOT_GROUP2
340
0
102
{BLKREFS
331
70
102
}
  0
BLOCK_RECORD
  5
75
330
1
100
AcDbSymbolTableRecord
100
AcDbBlockTableRecord
  2
SE
340
0
102
{BLKREFS
331
76
102
}
  0
BLOCK_RECORD
  5
BA
330
1
100
AcDbSymbolTableRecord
100
AcDbBlockTableRecord
  2
SE1
340
0
102
{BLKREFS
331
BB
102
}
  0
BLOCK_RECORD
  5
EB
330
1
100
AcDbSymbolTableRecord
100
AcDbBlockTableRecord
  2
SE2
340
0
102
{BLKREFS
331
EC
102
}
  0
ENDTAB
  0
ENDSEC
  0
SECTION
  2
BLOCKS
  0
BLOCK
  5
20
330
1F
100
AcDbEntity
  8
0
100
AcDbBlockBegin
  2
*Model_Space
 70
     0
 10
0.0
 20
0.0
 30
0.0
  3
*Model_Space
  1

  0
ENDBLK
  5
21
330
1F
100
AcDbEntity
  8
0
100
AcDbBlockEnd
  0
BLOCK
  5
1C
330
1B
100
AcDbEntity
 67
     1
  8
0
100
AcDbBlockBegin
  2
*Paper_Space
 70
     0
 10
0.0
 20
0.0
 30
0.0
  3
*Paper_Space
  1

  0
ENDBLK
  5
1D
330
1B
100
AcDbEntity
 67
     1
  8
0
100
AcDbBlockEnd
  0
BLOCK
  5
67
330
5E
100
AcDbEntity
  8
0
100
AcDbBlockBegin
  2
SEANNOT_GROUP
 70
     0
 10
0.0
 20
0.0
 30
0.0
  3
SEANNOT_GROUP
  1

  0
LINE
  5
61
330
5E
100
AcDbEntity
  8
Default
  6
CENTER2
 62
     7
100
AcDbLine
 10
88.4738196748
 20
397.6047919962
 30
0.0
 11
48.4738205689
 21
397.6047919962
 31
0.0
  0
LINE
  5
62
330
5E
100
AcDbEntity
  8
Default
  6
CENTER2
 62
     7
100
AcDbLine
 10
68.4738201218
 20
417.6047915491
 30
0.0
 11
68.4738201218
 21
377.6047924432
 31
0.0
  0
LINE
  5
63
330
5E
100
AcDbEntity
  8
Default
  6
CENTER2
 62
     7
100
AcDbLine
 10
93.473819563
 20
397.6047919962
 30
0.0
 11
111.9738201218
 21
397.6047919962
 31
0.0
  0
LINE
  5
64
330
5E
100
AcDbEntity
  8
Default
  6
CENTER2
 62
     7
100
AcDbLine
 10
68.4738201218
 20
422.6047914374
 30
0.0
 11
68.4738201218
 21
441.1047919962
 31
0.0
  0
LINE
  5
65
330
5E
100
AcDbEntity
  8
Default
  6
CENTER2
 62
     7
100
AcDbLine
 10
43.4738206806
 20
397.6047919962
 30
0.0
 11
24.9738201218
 21
397.6047919962
 31
0.0
  0
LINE
  5
66
330
5E
100
AcDbEntity
  8
Default
  6
CENTER2
 62
     7
100
AcDbLine
 10
68.4738201218
 20
372.6047925549
 30
0.0
 11
68.4738201218
 21
354.1047919962
 31
0.0
  0
ENDBLK
  5
68
330
5E
100
AcDbEntity
  8
0
100
AcDbBlockEnd
  0
BLOCK
  5
6D
330
69
100
AcDbEntity
  8
0
100
AcDbBlockBegin
  2
SEANNOT_GROUP1
 70
     0
 10
0.0
 20
0.0
 30
0.0
  3
SEANNOT_GROUP1
  1

  0
LINE
  5
6B
330
69
100
AcDbEntity
  8
Default
  6
CENTER2
 62
     7
100
AcDbLine
 10
233.2534660791
 20
397.6063545572
 30
0.0
 11
193.2534669732
 21
397.6063545572
 31
0.0
  0
LINE
  5
6C
330
69
100
AcDbEntity
  8
Default
  6
CENTER2
 62
     7
100
AcDbLine
 10
213.2534665262
 20
417.6063541102
 30
0.0
 11
213.2534665262
 21
377.6063550042
 31
0.0
  0
ENDBLK
  5
6E
330
69
100
AcDbEntity
  8
0
100
AcDbBlockEnd
  0
BLOCK
  5
73
330
6F
100
AcDbEntity
  8
0
100
AcDbBlockBegin
  2
SEANNOT_GROUP2
 70
     0
 10
0.0
 20
0.0
 30
0.0
  3
SEANNOT_GROUP2
  1

  0
LINE
  5
71
330
6F
100
AcDbEntity
  8
Default
  6
CENTER2
 62
     7
100
AcDbLine
 10
88.4738196748
 20
268.5331978087
 30
0.0
 11
48.4738205689
 21
268.5331978087
 31
0.0
  0
LINE
  5
72
330
6F
100
AcDbEntity
  8
Default
  6
CENTER2
 62
     7
100
AcDbLine
 10
68.4738201218
 20
288.5331973616
 30
0.0
 11
68.4738201218
 21
248.5331982557
 31
0.0
  0
ENDBLK
  5
74
330
6F
100
AcDbEntity
  8
0
100
AcDbBlockEnd
  0
BLOCK
  5
B8
330
75
100
AcDbEntity
  8
0
100
AcDbBlockBegin
  2
SE
 70
     0
 10
0.0
 20
0.0
 30
0.0
  3
SE
  1

  0
ARC
  5
78
330
75
100
AcDbEntity
  8
$DDT_AUDIT_GENERATED_(77)
  6
Continuous
 62
     7
100
AcDbCircle
 10
68.47382166
 20
176.1135211075
 30
0.0
 40
236.3612169013227
100
AcDbArc
 50
92.1059385543
 51
93.5436661714
  0
ARC
  5
79
330
75
100
AcDbEntity
  8
$DDT_AUDIT_GENERATED_(77)
  6
Continuous
 62
     7
100
AcDbCircle
 10
68.47382166
 20
176.1135211075
 30
0.0
 40
236.3612169013227
100
AcDbArc
 50
86.4563378387
 51
87.8939423309
  0
SPLINE
  5
7A
330
75
100
AcDbEntity
  8
$DDT_AUDIT_GENERATED_(77)
  6
Continuous
 62
     7
100
AcDbSpline
210
0.0
220
0.0
230
1.0
 70
     8
 71
     3
 72
    10
 73
     6
 74
     0
 42
0.0000000103969279
 43
0.0000000001
 40
0.8656750989495798
 40
0.8656750989495798
 40
0.8656750989495798
 40
0.8656750989495798
 40
0.9004019822714142
 40
0.9506916575778299
 40
0.9855485472214653
 40
0.9855485472214653
 40
0.9855485472214653
 40
0.9855485472214653
 10
48.0935400028356
 20
409.1444918657012
 30
0.0
 10
48.076618155029
 20
409.1371588022656
 30
0.0
 10
48.04092274537298
 20
409.119886024379
 30
0.0
 10
48.00928959781346
 20
409.097914675637
 30
0.0
 10
48.00504902498026
 20
409.0850935019001
 30
0.0
 10
48.00420837720156
 20
409.0799816311408
 30
0.0
  0
ARC
  5
7B
330
75
100
AcDbEntity
  8
$DDT_AUDIT_GENERATED_(77)
  6
Continuous
 62
     7
100
AcDbCircle
 10
9.3206420862
 20
402.4613878833
 30
0.0
 40
79.89761220496568
100
AcDbArc
 50
355.4862380473
 51
2.7947630904
  0
ARC
  5
7C
330
75
100
AcDbEntity
  8
$DDT_AUDIT_GENERATED_(77)
  6
Continuous
 62
     7
100
AcDbCircle
 10
83.9558303551
 20
391.6166563515
 30
0.0
 40
18.15573955345726
100
AcDbArc
 50
74.0571163758
 51
74.3902771968
  0
ELLIPSE
  5
7D
330
75
100
AcDbEntity
  8
$DDT_AUDIT_GENERATED_(77)
  6
Continuous
 62
     7
100
AcDbEllipse
 10
82.9196970793
 20
409.5284571259
 30
0.0
 11
-0.1781942084066318
 21
-2.493641278149376
 31
0.0
210
0.0
220
0.0
230
1.0
 40
0.357963621
 41
2.979196303330813
 42
3.158128348764911
  0
ELLIPSE
  5
7E
330
75
100
AcDbEntity
  8
$DDT_AUDIT_GENERATED_(77)
  6
Continuous
 62
     7
100
AcDbEllipse
 10
54.0279299608
 20
409.5284561203
 30
0.0
 11
0.17819459654486
 21
-2.493641250413182
 31
0.0
210
0.0
220
0.0
230
0.9999999999999999
 40
0.3579660366
 41
3.125056894297464
 42
3.303989931929615
  0
SPLINE
  5
7F
330
75
100
AcDbEntity
  8
$DDT_AUDIT_GENERATED_(77)
  6
Continuous
 62
     7
100
AcDbSpline
210
0.0
220
0.0
230
1.0
 70
     8
 71
     3
 72
    23
 73
    19
 74
     0
 42
0.0000000017014017
 43
0.0000000001
 40
0.0
 40
0.0
 40
0.0
 40
0.0
 40
0.028302560824144
 40
0.0586607526553189
 40
0.0910725677539704
 40
0.1255356447099446
 40
0.1620473144915999
 40
0.2006046370876449
 40
0.2412044314561145
 40
0.3020119492968535
 40
0.3627808458141109
 40
0.422617380904049
 40
0.4866559702173703
 40
0.6200692744805412
 40
0.7392411897338337
 40
0.7936741885722415
 40
0.8469527390217766
 40
0.8661411792094099
 40
0.8661411792094099
 40
0.8661411792094099
 40
0.8661411792094099
 10
83.79950572226124
 20
396.4227244384032
 30
0.0
 10
83.88536729164733
 20
396.4207684372826
 30
0.0
 10
84.06332660478574
 20
396.4167143695734
 30
0.0
 10
84.3344145426452
 20
396.4117543299586
 30
0.0
 10
84.61894036541564
 20
396.4072034204106
 30
0.0
 10
84.91503050937679
 20
396.4031283952658
 30
0.0
 10
85.22105190186703
 20
396.3994689980269
 30
0.0
 10
85.53499182526147
 20
396.3961819277544
 30
0.0
 10
85.90226482496944
 20
396.3930712042643
 30
0.0
 10
86.30799095926244
 20
396.3895021423305
 30
0.0
 10
86.73269788736114
 20
396.3858681566663
 30
0.0
 10
87.13337618162343
 20
396.3805828532733
 30
0.0
 10
87.64337756694296
 20
396.3692331396548
 30
0.0
 10
88.17108259617387
 20
396.3476263072045
 30
0.0
 10
88.54398447096584
 20
396.3118892556078
 30
0.0
 10
88.74425548490292
 20
396.275640361465
 30
0.0
 10
88.82983698952509
 20
396.2518968940236
 30
0.0
 10
88.86810967838096
 20
396.2369025069484
 30
0.0
 10
88.87752179275678
 20
396.2328335127285
 30
0.0
  0
SPLINE
  5
80
330
75
100
AcDbEntity
  8
$DDT_AUDIT_GENERATED_(77)
  6
Continuous
 62
     7
100
AcDbSpline
210
0.0
220
0.0
230
1.0
 70
     8
 71
     3
 72
    10
 73
     6
 74
     0
 42
0.0000000089251047
 43
0.0000000001
 40
0.8661411792094099
 40
0.8661411792094099
 40
0.8661411792094099
 40
0.8661411792094099
 40
0.899090400110372
 40
0.9501012636656819
 40
0.993383763778393
 40
0.993383763778393
 40
0.993383763778393
 40
0.993383763778393
 10
88.87752179275678
 20
396.2328335127285
 30
0.0
 10
88.89368370235867
 20
396.2258464836586
 30
0.0
 10
88.92944176988851
 20
396.2073011733591
 30
0.0
 10
88.96373291942453
 20
396.1764328166501
 30
0.0
 10
88.9663792986019
 20
396.1501829917082
 30
0.0
 10
88.96695804262461
 20
396.13803952627
 30
0.0
  0
ARC
  5
81
330
75
100
AcDbEntity
  8
$DDT_AUDIT_GENERATED_(77)
  6
Continuous
 62
     7
100
AcDbCircle
 10
68.4738055012
 20
1363.9942479989
 30
0.0
 40
967.6928904835844
100
AcDbArc
 50
269.0925487154
 51
270.9074517972
  0
ARC
  5
82
330
75
100
AcDbEntity
  8
$DDT_AUDIT_GENERATED_(77)
  6
Continuous
 62
     7
100
AcDbCircle
 10
127.6272570769
 20
402.4613871187
 30
0.0
 40
79.8978702304931
100
AcDbArc
 50
177.247489274
 51
184.5433130789
  0
SPLINE
  5
83
330
75
100
AcDbEntity
  8
$DDT_AUDIT_GENERATED_(77)
  6
Continuous
 62
     7
100
AcDbSpline
210
0.0
220
0.0
230
1.0
 70
     8
 71
     3
 72
    12
 73
     8
 74
     0
 42
0.0000000090303865
 43
0.0000000001
 40
0.0065614479815619
 40
0.0065614479815619
 40
0.0065614479815619
 40
0.0065614479815619
 40
0.027850103652457
 40
0.0560215670858111
 40
0.0845169941988885
 40
0.1133389322555001
 40
0.1343752496953122
 40
0.1343752496953122
 40
0.1343752496953122
 40
0.1343752496953122
 10
47.98018122427018
 20
396.1380693881521
 30
0.0
 10
47.97995020204556
 20
396.1441255603919
 30
0.0
 10
47.98005043264692
 20
396.1580963319474
 30
0.0
 10
47.99010255886733
 20
396.178646295924
 30
0.0
 10
48.01021148798146
 20
396.1998783793862
 30
0.0
 10
48.03784433064055
 20
396.2180394908332
 30
0.0
 10
48.06037185075284
 20
396.2289126978847
 30
0.0
 10
48.07075646309301
 20
396.2333801420137
 30
0.0
  0
SPLINE
  5
84
330
75
100
AcDbEntity
  8
$DDT_AUDIT_GENERATED_(77)
  6
Continuous
 62
     7
100
AcDbSpline
210
0.0
220
0.0
230
1.0
 70
     8
 71
     3
 72
    22
 73
    18
 74
     0
 42
0.0000000017006916
 43
0.0000000001
 40
0.1343752496953122
 40
0.1343752496953122
 40
0.1343752496953122
 40
0.1343752496953122
 40
0.1424898737139101
 40
0.1719722581847304
 40
0.2017884745285932
 40
0.2319408631038106
 40
0.262431718174197
 40
0.3805701809906968
 40
0.5146742491164762
 40
0.5705433724103519
 40
0.6379648648336012
 40
0.7289252647914019
 40
0.7595883174457305
 40
0.8297483013779061
 40
0.8932147119384503
 40
0.9499700740491496
 40
1.0
 40
1.0
 40
1.0
 40
1.0
 10
48.07075646309301
 20
396.2333801420137
 30
0.0
 10
48.07476226044611
 20
396.2351034298247
 30
0.0
 10
48.09392859696906
 20
396.2430049653686
 30
0.0
 10
48.13333254679775
 20
396.2564874242213
 30
0.0
 10
48.19605108299172
 20
396.2729786297178
 30
0.0
 10
48.27004975229483
 20
396.2882471370119
 30
0.0
 10
48.43714285327914
 20
396.3157066482484
 30
0.0
 10
48.78169057071869
 20
396.3481133678081
 30
0.0
 10
49.29623924312168
 20
396.3696769769906
 30
0.0
 10
49.8040599487646
 20
396.3805484415229
 30
0.0
 10
50.26707083067799
 20
396.3867729215796
 30
0.0
 10
50.71843546722174
 20
396.3912405072075
 30
0.0
 10
51.20539597957668
 20
396.3943776022879
 30
0.0
 10
51.6427916881305
 20
396.3987733016995
 30
0.0
 10
52.17727616516589
 20
396.4051628394179
 30
0.0
 10
52.67379787437552
 20
396.4124472217153
 30
0.0
 10
52.99678935023296
 20
396.4194455280265
 30
0.0
 10
53.14811393729277
 20
396.4227243012811
 30
0.0
  0
SPLINE
  5
85
330
75
100
AcDbEntity
  8
$DDT_AUDIT_GENERATED_(77)
  6
Continuous
 62
     7
100
AcDbSpline
210
0.0
220
0.0
230
1.0
 70
     8
 71
     3
 72
     8
 73
     4
 74
     0
 42
0.0000000007299983
 43
0.0000000001
 40
0.0
 40
0.0
 40
0.0
 40
0.0
 40
0.0424280899217102
 40
0.0424280899217102
 40
0.0424280899217102
 40
0.0424280899217102
 10
80.72382012183472
 20
392.1168085299976
 30
0.0
 10
80.72382012183472
 20
392.0247470599771
 30
0.0
 10
80.57728057538736
 20
391.9192453204374
 30
0.0
 10
80.29195727981657
 20
391.8017209671725
 30
0.0
  0
SPLINE
  5
86
330
75
100
AcDbEntity
  8
$DDT_AUDIT_GENERATED_(77)
  6
Continuous
 62
     7
100
AcDbSpline
210
0.0
220
0.0
230
1.0
 70
     8
 71
     3
 72
    24
 73
    20
 74
     0
 42
0.0000000002129959
 43
0.0000000001
 40
0.4586124985641585
 40
0.4586124985641585
 40
0.4586124985641585
 40
0.4586124985641585
 40
0.5
 40
0.5
 40
0.5625
 40
0.5625
 40
0.625
 40
0.625
 40
0.6875
 40
0.6875
 40
0.75
 40
0.75
 40
0.8125
 40
0.8125
 40
0.875
 40
0.875
 40
0.9375
 40
0.9375
 40
1.0
 40
1.0
 40
1.0
 40
1.0
 10
56.6564816068109
 20
391.8017022349463
 30
0.0
 10
56.37810863567875
 20
391.9166156382004
 30
0.0
 10
56.23160398028202
 20
392.0201262551345
 30
0.0
 10
56.21283385037625
 20
392.244516504188
 30
0.0
 10
56.52207415286595
 20
392.3497925770249
 30
0.0
 10
57.72424844325094
 20
392.5138100096475
 30
0.0
 10
58.62984523684732
 20
392.5753904081919
 30
0.0
 10
60.879681229935
 20
392.6722933598119
 30
0.0
 10
62.23857419694178
 20
392.708524404347
 30
0.0
 10
65.20434104904979
 20
392.7583278724786
 30
0.0
 10
66.79883397797319
 20
392.7714757632135
 30
0.0
 10
70.04140537631092
 20
392.7720461737278
 30
0.0
 10
71.63751291184032
 20
392.75947967745
 30
0.0
 10
74.6192683279386
 20
392.7106171273177
 30
0.0
 10
75.98324009791644
 20
392.6749241002774
 30
0.0
 10
78.25450361057976
 20
392.5790697080273
 30
0.0
 10
79.17105452064939
 20
392.5182091195933
 30
0.0
 10
80.39853216749091
 20
392.3560481121466
 30
0.0
 10
80.72382012183473
 20
392.2524225038272
 30
0.0
 10
80.72382012183472
 20
392.1168085299976
 30
0.0
  0
SPLINE
  5
87
330
75
100
AcDbEntity
  8
$DDT_AUDIT_GENERATED_(77)
  6
Continuous
 62
     7
100
AcDbSpline
210
0.0
220
0.0
230
1.0
 70
     8
 71
     3
 72
    47
 73
    43
 74
     0
 42
0.0000000016840477
 43
0.0000000001
 40
0.0
 40
0.0
 40
0.0
 40
0.0
 40
0.0277716010556513
 40
0.0675903403095148
 40
0.1060702268965084
 40
0.1431045901348288
 40
0.1786189440663395
 40
0.2125651715742999
 40
0.2449163612891624
 40
0.2731614480930359
 40
0.300059190515727
 40
0.3256181071153102
 40
0.3498517308247164
 40
0.3727770676013732
 40
0.3944133246689804
 40
0.4165702817118131
 40
0.4372442776593651
 40
0.4564617427221254
 40
0.4742479377230557
 40
0.4906264651604976
 40
0.5056189574335582
 40
0.5192449060534367
 40
0.5425326844421758
 40
0.5664809538464408
 40
0.5911617322574554
 40
0.6159052577893046
 40
0.6413478203087697
 40
0.6674968905936394
 40
0.6933767126413674
 40
0.7182286761911055
 40
0.7420904020898124
 40
0.7653614088188825
 40
0.7730983378622235
 40
0.7809207612590346
 40
0.788830474150271
 40
0.7968294587810744
 40
0.8049204319983144
 40
0.8137089090178037
 40
0.8231345886844385
 40
0.8336810797098941
 40
0.8453666370265966
 40
0.856705727634782
 40
0.856705727634782
 40
0.856705727634782
 40
0.856705727634782
 10
77.15925127244836
 20
412.3302551542928
 30
0.0
 10
77.13940112905576
 20
412.3309368967932
 30
0.0
 10
77.09793398048043
 20
412.3323897284717
 30
0.0
 10
77.00785463581347
 20
412.3363136295202
 30
0.0
 10
76.89531342386408
 20
412.3419216056168
 30
0.0
 10
76.76854764961561
 20
412.349164583044
 30
0.0
 10
76.63200660156997
 20
412.3580745397433
 30
0.0
 10
76.4887113490844
 20
412.3687102640472
 30
0.0
 10
76.34570295467337
 20
412.3807174780587
 30
0.0
 10
76.2060744448289
 20
412.3938301979593
 30
0.0
 10
76.0720471144706
 20
412.4077338557524
 30
0.0
 10
75.94069314153481
 20
412.4226758247024
 30
0.0
 10
75.81317841910325
 20
412.4384612001976
 30
0.0
 10
75.69039705337899
 20
412.4548759055985
 30
0.0
 10
75.56977756466797
 20
412.4721597466508
 30
0.0
 10
75.45211912392897
 20
412.490143684836
 30
0.0
 10
75.33815121433172
 20
412.5086285392136
 30
0.0
 10
75.23183228912087
 20
412.5267834543197
 30
0.0
 10
75.13326294503388
 20
412.5443751287694
 30
0.0
 10
75.04255083616933
 20
412.5611827989379
 30
0.0
 10
74.95942530252408
 20
412.5770747630243
 30
0.0
 10
74.8644582218742
 20
412.5957195469364
 30
0.0
 10
74.74903230163613
 20
412.6189854532039
 30
0.0
 10
74.59066938677766
 20
412.6517870569941
 30
0.0
 10
74.41383626342687
 20
412.6895447671827
 30
0.0
 10
74.21926265242222
 20
412.7321974881746
 30
0.0
 10
74.00858999352938
 20
412.7793916645954
 30
0.0
 10
73.78661568400325
 20
412.8299005832755
 30
0.0
 10
73.55188129327819
 20
412.8836989645253
 30
0.0
 10
73.3035259790171
 20
412.9405821153727
 30
0.0
 10
73.04447546340269
 20
412.9994328005295
 30
0.0
 10
72.8312696824511
 20
413.0470226436508
 30
0.0
 10
72.6877746569388
 20
413.0785046487712
 30
0.0
 10
72.60222855838775
 20
413.0970964506999
 30
0.0
 10
72.51685954479804
 20
413.1154505544493
 30
0.0
 10
72.43302170355766
 20
413.1332666341182
 30
0.0
 10
72.3431621156079
 20
413.1521193764176
 30
0.0
 10
72.26793273820928
 20
413.1676106667167
 30
0.0
 10
72.21563620634167
 20
413.1780241736323
 30
0.0
 10
72.1787968161156
 20
413.1848636358928
 30
0.0
 10
72.15878276699655
 20
413.1877591493351
 30
0.0
 10
72.15485425088956
 20
413.1874039418021
 30
0.0
 10
72.15471452512675
 20
413.186781422135
 30
0.0
  0
SPLINE
  5
88
330
75
100
AcDbEntity
  8
$DDT_AUDIT_GENERATED_(77)
  6
Continuous
 62
     7
100
AcDbSpline
210
0.0
220
0.0
230
1.0
 70
     8
 71
     3
 72
    58
 73
    54
 74
     0
 42
0.0000000016767478
 43
0.0000000001
 40
0.1165375826792877
 40
0.1165375826792877
 40
0.1165375826792877
 40
0.1165375826792877
 40
0.1226839280309083
 40
0.1335391587023756
 40
0.1601460394704333
 40
0.1881262754281724
 40
0.2029514287121917
 40
0.2181605091716876
 40
0.233392958515067
 40
0.247328072545524
 40
0.2598581100003537
 40
0.2709901083660804
 40
0.2807275872188532
 40
0.2881048953190261
 40
0.2944152670853521
 40
0.2998138731961132
 40
0.3050653883965043
 40
0.3102728518701596
 40
0.315436476137073
 40
0.3205564532170374
 40
0.3256329559152304
 40
0.3413062668978606
 40
0.3565553502202079
 40
0.3639019861385742
 40
0.3711467551167285
 40
0.3789463686001848
 40
0.3879673022805408
 40
0.3982174315727174
 40
0.4097063570224047
 40
0.4224456112791202
 40
0.4364488475825665
 40
0.4517320012049932
 40
0.4683134089703361
 40
0.4862138678509853
 40
0.5054566088370626
 40
0.5260671571003382
 40
0.5480730447496068
 40
0.5685694735960386
 40
0.590184390403255
 40
0.6129380562465729
 40
0.6368501108941532
 40
0.6619387766647723
 40
0.6877400403557168
 40
0.7147031901899271
 40
0.742835261980408
 40
0.772137183431374
 40
0.8032357867905107
 40
0.8355273497409854
 40
0.8689808716567211
 40
0.9035494889374731
 40
0.9391674213337816
 40
0.975746628192069
 40
1.0
 40
1.0
 40
1.0
 40
1.0
 10
64.96823099826057
 20
413.2193130099738
 30
0.0
 10
64.9680695471997
 20
413.2196621938864
 30
0.0
 10
64.96335329266489
 20
413.2196973089107
 30
0.0
 10
64.92749404920829
 20
413.214628355096
 30
0.0
 10
64.83541776890658
 20
413.1984043040458
 30
0.0
 10
64.67681683313812
 20
413.1670098693685
 30
0.0
 10
64.50927635255566
 20
413.1321691048124
 30
0.0
 10
64.35993287740354
 20
413.1003143425445
 30
0.0
 10
64.1961273820697
 20
413.0646078300505
 30
0.0
 10
64.04223104545818
 20
413.0304919930381
 30
0.0
 10
63.90149904180392
 20
412.9989233704656
 30
0.0
 10
63.77578456073499
 20
412.9704894217651
 30
0.0
 10
63.6692252184301
 20
412.9462592551398
 30
0.0
 10
63.5811840864483
 20
412.9261791322954
 30
0.0
 10
63.51004999969348
 20
412.9099287710101
 30
0.0
 10
63.4480826223424
 20
412.8957602103901
 30
0.0
 10
63.39105426829554
 20
412.8827169608252
 30
0.0
 10
63.33578342402593
 20
412.8700772262244
 30
0.0
 10
63.28192507837806
 20
412.8577669104583
 30
0.0
 10
63.22949927142553
 20
412.8457947299531
 30
0.0
 10
63.1429162464019
 20
412.8260465617398
 30
0.0
 10
63.02751658820821
 20
412.7998129120337
 30
0.0
 10
62.91412912818947
 20
412.774230296259
 30
0.0
 10
62.83182386656195
 20
412.7557803335636
 30
0.0
 10
62.7731730805905
 20
412.7426904950471
 30
0.0
 10
62.71408554520612
 20
412.7295598061525
 30
0.0
 10
62.65085059839261
 20
412.7155785867085
 30
0.0
 10
62.5816456244568
 20
412.7003766170482
 30
0.0
 10
62.50634138899184
 20
412.6839723416981
 30
0.0
 10
62.42477174890587
 20
412.6663934361991
 30
0.0
 10
62.33677782639323
 20
412.6476904879176
 30
0.0
 10
62.24220290525736
 20
412.627939724524
 30
0.0
 10
62.14090483664549
 20
412.6072486384037
 30
0.0
 10
62.03276610173288
 20
412.585759647426
 30
0.0
 10
61.91770901191605
 20
412.5636527067254
 30
0.0
 10
61.79571537196088
 20
412.5411458892407
 30
0.0
 10
61.67257620476455
 20
412.5194999107249
 30
0.0
 10
61.5488897955834
 20
412.498879575613
 30
0.0
 10
61.4253079161244
 20
412.4794146638101
 30
0.0
 10
61.29714836521138
 20
412.4604842389768
 30
0.0
 10
61.16491322608971
 20
412.4423076576335
 30
0.0
 10
61.03015751985719
 20
412.4252075001162
 30
0.0
 10
60.89378814020142
 20
412.4093473559244
 30
0.0
 10
60.75691939172772
 20
412.3948624418482
 30
0.0
 10
60.62017384584069
 20
412.3817951810594
 30
0.0
 10
60.48425733875526
 20
412.3701540951944
 30
0.0
 10
60.35129947109834
 20
412.3600299240605
 30
0.0
 10
60.2237686180994
 20
412.3514562351997
 30
0.0
 10
60.10510130859986
 20
412.3444410738654
 30
0.0
 10
59.99748211514656
 20
412.3388589983867
 30
0.0
 10
59.90420284985177
 20
412.3346114628237
 30
0.0
 10
59.83181089655315
 20
412.3316949904076
 30
0.0
 10
59.79957953013334
 20
412.3305929612835
 30
0.0
 10
59.78463288473624
 20
412.33009047233
 30
0.0
  0
ARC
  5
89
330
75
100
AcDbEntity
  8
$DDT_AUDIT_GENERATED_(77)
  6
Continuous
 62
     7
100
AcDbCircle
 10
143.2122147205
 20
402.6784717451
 30
0.0
 40
95.48237326022326
100
AcDbArc
 50
179.9827216199
 51
180.616533513
  0
ARC
  5
8A
330
75
100
AcDbEntity
  8
$DDT_AUDIT_GENERATED_(77)
  6
Continuous
 62
     7
100
AcDbCircle
 10
143.2122147205
 20
402.6784717451
 30
0.0
 40
95.48237326022326
100
AcDbArc
 50
180.7320423204
 51
181.3461054433
  0
ARC
  5
8B
330
75
100
AcDbEntity
  8
$DDT_AUDIT_GENERATED_(77)
  6
Continuous
 62
     7
100
AcDbCircle
 10
68.4771396639
 20
397.8252612254
 30
0.0
 40
16.20815013119285
100
AcDbArc
 50
251.7494003087
 51
288.1282009314
  0
ARC
  5
8C
330
75
100
AcDbEntity
  8
$DDT_AUDIT_GENERATED_(77)
  6
Continuous
 62
     7
100
AcDbCircle
 10
-6.5416142556
 20
402.7438332157
 30
0.0
 40
95.76022331579041
100
AcDbArc
 50
358.4337819802
 51
358.9968628461
  0
ARC
  5
8D
330
75
100
AcDbEntity
  8
$DDT_AUDIT_GENERATED_(77)
  6
Continuous
 62
     7
100
AcDbCircle
 10
-6.5416142556
 20
402.7438332157
 30
0.0
 40
95.76022331579041
100
AcDbArc
 50
359.1279611779
 51
359.7865663607
  0
ARC
  5
8E
330
75
100
AcDbEntity
  8
$DDT_AUDIT_GENERATED_(77)
  6
Continuous
 62
     7
100
AcDbCircle
 10
106.7645212648
 20
403.6956349077
 30
0.0
 40
58.99499796149424
100
AcDbArc
 50
174.7624897595
 51
177.4656313752
  0
ARC
  5
8F
330
75
100
AcDbEntity
  8
$DDT_AUDIT_GENERATED_(77)
  6
Continuous
 62
     7
100
AcDbCircle
 10
33.8572399215
 20
404.1553120367
 30
0.0
 40
55.30345567067683
100
AcDbArc
 50
2.2395861208
 51
5.1103041091
  0
LINE
  5
90
330
75
100
AcDbEntity
  8
$DDT_AUDIT_GENERATED_(77)
  6
Continuous
 62
     7
100
AcDbLine
 10
88.9593698135
 20
396.1377028755
 30
0.0
 11
88.9626629894
 21
396.1804755418
 31
0.0
  0
SPLINE
  5
91
330
75
100
AcDbEntity
  8
$DDT_AUDIT_GENERATED_(77)
  6
Continuous
 62
     7
100
AcDbSpline
210
0.0
220
0.0
230
1.0
 70
     8
 71
     3
 72
    29
 73
    25
 74
     0
 42
0.0000000014322698
 43
0.0000000001
 40
0.0
 40
0.0
 40
0.0
 40
0.0
 40
0.0572331392641879
 40
0.1108487700642016
 40
0.1594612451441256
 40
0.2021085146060593
 40
0.2382404614418885
 40
0.2676365477035344
 40
0.2903011060617655
 40
0.3068272551624574
 40
0.3224978364907658
 40
0.3404734011830639
 40
0.3792517851838503
 40
0.4311623504466891
 40
0.4821485643475203
 40
0.5333831252970366
 40
0.5991780666113348
 40
0.64998657280655
 40
0.6861881992249811
 40
0.7157300681599205
 40
0.7609820423240039
 40
0.8238273832903438
 40
0.9035130462039342
 40
1.0
 40
1.0
 40
1.0
 40
1.0
 10
88.85293219687283
 20
409.1447556044762
 30
0.0
 10
88.82679389605852
 20
409.3321808597267
 30
0.0
 10
88.77995186310197
 20
409.6387997379379
 30
0.0
 10
88.60383162539271
 20
410.0975516180198
 30
0.0
 10
88.38553345578522
 20
410.4731148714735
 30
0.0
 10
88.14584405452668
 20
410.7732159870092
 30
0.0
 10
87.91224099707495
 20
410.9993726677559
 30
0.0
 10
87.70290860411889
 20
411.162745806477
 30
0.0
 10
87.530769376163
 20
411.2750019038627
 30
0.0
 10
87.38520479370173
 20
411.3571820875385
 30
0.0
 10
87.25735279443553
 20
411.4183220396812
 30
0.0
 10
87.10891544423717
 20
411.4790518877572
 30
0.0
 10
86.9473241295546
 20
411.5311779494661
 30
0.0
 10
86.77819381696713
 20
411.5723809121729
 30
0.0
 10
86.60633712738164
 20
411.602753392121
 30
0.0
 10
86.38943094571543
 20
411.6360673205185
 30
0.0
 10
86.12626905937314
 20
411.6742541774618
 30
0.0
 10
85.84624675464809
 20
411.7131093331119
 30
0.0
 10
85.60196071173692
 20
411.7481866354741
 30
0.0
 10
85.34078948972045
 20
411.7878195764989
 30
0.0
 10
85.03385106043262
 20
411.8232201993883
 30
0.0
 10
84.5918952126726
 20
411.8692285502239
 30
0.0
 10
83.98044485628853
 20
411.9238013692736
 30
0.0
 10
83.53208097188697
 20
411.9573947532437
 30
0.0
 10
83.23991377414767
 20
411.978951868817
 30
0.0
  0
SPLINE
  5
92
330
75
100
AcDbEntity
  8
$DDT_AUDIT_GENERATED_(77)
  6
Continuous
 62
     7
100
AcDbSpline
210
0.0
220
0.0
230
1.0
 70
     8
 71
     3
 72
    22
 73
    18
 74
     0
 42
0.0000000014309094
 43
0.0000000001
 40
0.0
 40
0.0
 40
0.0
 40
0.0
 40
0.0822209928984403
 40
0.1618540841711403
 40
0.2380850729958267
 40
0.3113539819674864
 40
0.4049573044331354
 40
0.4922669436193521
 40
0.5728335320465876
 40
0.6221646357304815
 40
0.6625940792387431
 40
0.6985592290192443
 40
0.7361935121695559
 40
0.7844405438408898
 40
0.8458212138322572
 40
0.9187602874647991
 40
1.0
 40
1.0
 40
1.0
 40
1.0
 10
53.70771195231534
 20
411.978950768498
 30
0.0
 10
53.45380594952448
 20
411.9573961895087
 30
0.0
 10
53.03305024923201
 20
411.9214246635819
 30
0.0
 10
52.40195112707477
 20
411.8607409558949
 30
0.0
 10
51.85616788743053
 20
411.8029339721688
 30
0.0
 10
51.3298188033047
 20
411.7415030662488
 30
0.0
 10
50.85591141045366
 20
411.6804662998148
 30
0.0
 10
50.4536765148251
 20
411.6201633520135
 30
0.0
 10
50.22114555695772
 20
411.5850803647992
 30
0.0
 10
50.00070451985185
 20
411.5300778462976
 30
0.0
 10
49.77879135886914
 20
411.454348000706
 30
0.0
 10
49.50685701367072
 20
411.329745846194
 30
0.0
 10
49.19283780564935
 20
411.1314238846708
 30
0.0
 10
48.85970478002091
 20
410.8442699559299
 30
0.0
 10
48.51366083082037
 20
410.4218359895424
 30
0.0
 10
48.21028777342607
 20
409.8320726545555
 30
0.0
 10
48.13491961708438
 20
409.407948380528
 30
0.0
 10
48.09310732546062
 20
409.1443477086435
 30
0.0
  0
SPLINE
  5
93
330
75
100
AcDbEntity
  8
$DDT_AUDIT_GENERATED_(77)
  6
Continuous
 62
     7
100
AcDbSpline
210
0.0
220
0.0
230
1.0
 70
     8
 71
     3
 72
    61
 73
    57
 74
     0
 42
0.0000000007080301
 43
0.0000000001
 40
0.0
 40
0.0
 40
0.0
 40
0.0
 40
0.0268994545297082
 40
0.0519115755103328
 40
0.0750100296461515
 40
0.0961695508245795
 40
0.1153709726841115
 40
0.1326029308199833
 40
0.1478615014482601
 40
0.1601166504021861
 40
0.1707351854819474
 40
0.1805980550974212
 40
0.1902360781929984
 40
0.1996497324221637
 40
0.2088395283758306
 40
0.2224732175030222
 40
0.2357131959656317
 40
0.2498863540826953
 40
0.2653373254470274
 40
0.2820561126172103
 40
0.3000309553662945
 40
0.3189783229992509
 40
0.3402633312141899
 40
0.3603407343885454
 40
0.3792249902506228
 40
0.3969295664032652
 40
0.4141371711531421
 40
0.4322472835485059
 40
0.4547890985620897
 40
0.4786048058639715
 40
0.5030903788205167
 40
0.5263781835039911
 40
0.5424519673200843
 40
0.5578410638836937
 40
0.5725601974011401
 40
0.587806513418422
 40
0.6044475733456446
 40
0.6221340146849993
 40
0.6411347210406146
 40
0.661434026077896
 40
0.6819233305336843
 40
0.7046654835312725
 40
0.7256322447675061
 40
0.7448484201179795
 40
0.7623350635980214
 40
0.7784558591509563
 40
0.7949838476731279
 40
0.8210029055437928
 40
0.8484918350552826
 40
0.8761091548830453
 40
0.9018596909644637
 40
0.9182931911532454
 40
0.9363082632727737
 40
0.9559182156167336
 40
0.977140183201271
 40
0.9824465565617618
 40
0.9824465565617618
 40
0.9824465565617618
 40
0.9824465565617618
 10
48.03385657850406
 20
395.7641559860066
 30
0.0
 10
48.06621204997115
 20
395.6177962426771
 30
0.0
 10
48.11976307717192
 20
395.3806917438984
 30
0.0
 10
48.23199325511109
 20
395.0264623575158
 30
0.0
 10
48.35099228229819
 20
394.7183835962261
 30
0.0
 10
48.47622538719089
 20
394.4427376200306
 30
0.0
 10
48.60244884238557
 20
394.198549668016
 30
0.0
 10
48.72596987178683
 20
393.9831779366929
 30
0.0
 10
48.84050365864256
 20
393.7995862762098
 30
0.0
 10
48.9433039314664
 20
393.6452487854614
 30
0.0
 10
49.03470107254912
 20
393.5148028726717
 30
0.0
 10
49.12098437567107
 20
393.3966664570229
 30
0.0
 10
49.20582234002382
 20
393.2847353034129
 30
0.0
 10
49.29035375375855
 20
393.1769238748579
 30
0.0
 10
49.38849770006622
 20
393.055567519806
 30
0.0
 10
49.5001359090996
 20
392.9223370035037
 30
0.0
 10
49.62920287032136
 20
392.7740276100449
 30
0.0
 10
49.76292281418879
 20
392.6255919044571
 30
0.0
 10
49.90748665521061
 20
392.4702459521235
 30
0.0
 10
50.06451118845819
 20
392.3066478033193
 30
0.0
 10
50.23373469352785
 20
392.1353585654252
 30
0.0
 10
50.41885706896853
 20
391.9528155784506
 30
0.0
 10
50.61551371799023
 20
391.7634562605955
 30
0.0
 10
50.8153945099929
 20
391.5750263693063
 30
0.0
 10
51.00541981835499
 20
391.3989201660729
 30
0.0
 10
51.18639327039254
 20
391.2334743606529
 30
0.0
 10
51.36404606904148
 20
391.0728241758175
 30
0.0
 10
51.55776143871035
 20
390.8992232932651
 30
0.0
 10
51.77312331122157
 20
390.7078068634141
 30
0.0
 10
52.008778150274
 20
390.4996586937985
 30
0.0
 10
52.24551258096553
 20
390.2913441711585
 30
0.0
 10
52.45805069158065
 20
390.1049083276209
 30
0.0
 10
52.64033402299863
 20
389.9453147231256
 30
0.0
 10
52.79405572190946
 20
389.8108858560006
 30
0.0
 10
52.94438440928267
 20
389.6795297857617
 30
0.0
 10
53.09936915788689
 20
389.5441710040677
 30
0.0
 10
53.26519644111715
 20
389.3993702051179
 30
0.0
 10
53.4439262263103
 20
389.2432728204497
 30
0.0
 10
53.63490289646715
 20
389.0763730720125
 30
0.0
 10
53.83462616076118
 20
388.9018740345552
 30
0.0
 10
54.04642006291296
 20
388.7169713206459
 30
0.0
 10
54.26157988018233
 20
388.529423791497
 30
0.0
 10
54.47362186267183
 20
388.3450384241658
 30
0.0
 10
54.66957597304062
 20
388.1751474515132
 30
0.0
 10
54.85109932878959
 20
388.0183091974051
 30
0.0
 10
55.0264216316243
 20
387.86738093598
 30
0.0
 10
55.23755983021271
 20
387.6865847905754
 30
0.0
 10
55.49597848903447
 20
387.4671016841067
 30
0.0
 10
55.79665436820128
 20
387.2148951302598
 30
0.0
 10
56.10064424297099
 20
386.9639531421519
 30
0.0
 10
56.37501954516609
 20
386.7416669302522
 30
0.0
 10
56.63173833213965
 20
386.5375066980086
 30
0.0
 10
56.87893720520741
 20
386.3444844004183
 30
0.0
 10
57.14653153688059
 20
386.1400716090957
 30
0.0
 10
57.35352033974893
 20
385.9858694327862
 30
0.0
 10
57.45623250567566
 20
385.910652467009
 30
0.0
 10
57.47645921450439
 20
385.8958908844523
 30
0.0
  0
ARC
  5
94
330
75
100
AcDbEntity
  8
$DDT_AUDIT_GENERATED_(77)
  6
Continuous
 62
     7
100
AcDbCircle
 10
48.8286203435
 20
395.937069941
 30
0.0
 40
0.8133564401541183
100
AcDbArc
 50
158.6157910402
 51
192.2746221118
  0
ARC
  5
95
330
75
100
AcDbEntity
  8
$DDT_AUDIT_GENERATED_(77)
  6
Continuous
 62
     7
100
AcDbCircle
 10
88.1146599491
 20
395.9383651138
 30
0.0
 40
0.8178920741807227
100
AcDbArc
 50
347.7029180496
 51
21.133387271
  0
SPLINE
  5
96
330
75
100
AcDbEntity
  8
$DDT_AUDIT_GENERATED_(77)
  6
Continuous
 62
     7
100
AcDbSpline
210
0.0
220
0.0
230
1.0
 70
     8
 71
     3
 72
    65
 73
    61
 74
     0
 42
0.0000000007088856
 43
0.0000000001
 40
0.0163358695607258
 40
0.0163358695607258
 40
0.0163358695607258
 40
0.0163358695607258
 40
0.0222587213612666
 40
0.0439495624245357
 40
0.0639420277873439
 40
0.0822541503891718
 40
0.0989016330501354
 40
0.115180326066881
 40
0.1321925064093788
 40
0.1499397987515068
 40
0.1658402985937222
 40
0.1812130256558276
 40
0.1960576416733552
 40
0.2103733450496594
 40
0.2241592946289371
 40
0.2377301524910075
 40
0.2523437903076136
 40
0.2681399609473658
 40
0.2851303662220886
 40
0.3033283825322735
 40
0.3227493414977668
 40
0.3430861147656464
 40
0.3624059089659414
 40
0.3803742764072341
 40
0.3985593582171605
 40
0.4150690134809028
 40
0.4298978207169688
 40
0.4442399699940828
 40
0.4588798882249904
 40
0.476194919943373
 40
0.4939193463003102
 40
0.5120596642793581
 40
0.5306223204879518
 40
0.5496075859909163
 40
0.5694723952264575
 40
0.5908328734597218
 40
0.614341902843311
 40
0.6394725232401866
 40
0.6662487714358718
 40
0.6884569519957663
 40
0.7110023570355221
 40
0.7316046165561192
 40
0.7458943295578715
 40
0.7589244983491982
 40
0.7708478495077827
 40
0.7826484939801618
 40
0.7944951438194521
 40
0.8038352856721718
 40
0.8132034624388554
 40
0.8225995038683662
 40
0.8320393251204447
 40
0.8424218550470536
 40
0.8557434218717256
 40
0.870899778152653
 40
0.8878916851871433
 40
0.9067144098586947
 40
0.9273566406203677
 40
0.9498003888379993
 40
0.9740226743798137
 40
1.0
 40
1.0
 40
1.0
 40
1.0
 10
79.47099999067606
 20
385.8952043782978
 30
0.0
 10
79.49327457121227
 20
385.9114571024261
 30
0.0
 10
79.59874931211148
 20
385.988711190908
 30
0.0
 10
79.81184567079714
 20
386.1476544529604
 30
0.0
 10
80.08451708779673
 20
386.3562299768229
 30
0.0
 10
80.33625458853233
 20
386.5531278369463
 30
0.0
 10
80.55601765980408
 20
386.7282410428091
 30
0.0
 10
80.7559979783449
 20
386.8898796579608
 30
0.0
 10
80.95546953591082
 20
387.0531658126097
 30
0.0
 10
81.14413933567174
 20
387.209432214862
 30
0.0
 10
81.3251814498612
 20
387.3608419721622
 30
0.0
 10
81.4961230878201
 20
387.504939055326
 30
0.0
 10
81.65989388034944
 20
387.6439512840657
 30
0.0
 10
81.81584251627297
 20
387.7771085151938
 30
0.0
 10
81.96441249310222
 20
387.9046057838274
 30
0.0
 10
82.11025902457999
 20
388.0302926708009
 30
0.0
 10
82.26112360430432
 20
388.1606871889074
 30
0.0
 10
82.42202488509893
 20
388.3001577976623
 30
0.0
 10
82.59376820471421
 20
388.4494047331767
 30
0.0
 10
82.77662941557675
 20
388.6086615657037
 30
0.0
 10
82.9698417139218
 20
388.7772273604955
 30
0.0
 10
83.16595037436119
 20
388.9485294678021
 30
0.0
 10
83.35835836919229
 20
389.11669273171
 30
0.0
 10
83.54396342110351
 20
389.2789221032127
 30
0.0
 10
83.72020855271045
 20
389.4328635430577
 30
0.0
 10
83.88562907025917
 20
389.5773340958122
 30
0.0
 10
84.03702577185018
 20
389.7095865881389
 30
0.0
 10
84.18245808163027
 20
389.836694985725
 30
0.0
 10
84.33708173758164
 20
389.9719476990799
 30
0.0
 10
84.50353464330716
 20
390.1177290435658
 30
0.0
 10
84.6820633685697
 20
390.2743696387448
 30
0.0
 10
84.86469625990115
 20
390.4349862968141
 30
0.0
 10
85.05127218204004
 20
390.5995418871058
 30
0.0
 10
85.24225984326753
 20
390.7685866671359
 30
0.0
 10
85.44307690407302
 20
390.9473858563818
 30
0.0
 10
85.66171058201691
 20
391.1437732479883
 30
0.0
 10
85.89761090158589
 20
391.3583464559784
 30
0.0
 10
86.1491526577589
 20
391.5911181972775
 30
0.0
 10
86.39135399750509
 20
391.820396643151
 30
0.0
 10
86.61888953157259
 20
392.0414498797437
 30
0.0
 10
86.82064949581478
 20
392.2429955355981
 30
0.0
 10
86.99814048913018
 20
392.4262957191525
 30
0.0
 10
87.14659138044586
 20
392.5846836342749
 30
0.0
 10
87.26902174485168
 20
392.7191216693723
 30
0.0
 10
87.38600799825913
 20
392.851551569752
 30
0.0
 10
87.49728087751913
 20
392.9816088022536
 30
0.0
 10
87.59865608576473
 20
393.104254614471
 30
0.0
 10
87.69079771762695
 20
393.2195577361507
 30
0.0
 10
87.77400641664384
 20
393.3270515038115
 30
0.0
 10
87.85583712600796
 20
393.4364356560155
 30
0.0
 10
87.93871455276751
 20
393.5513433991289
 30
0.0
 10
88.03045875492367
 20
393.6838821354776
 30
0.0
 10
88.13387421979465
 20
393.8414857552762
 30
0.0
 10
88.24837992981719
 20
394.0284637294365
 30
0.0
 10
88.36808634498296
 20
394.2412499932383
 30
0.0
 10
88.48968170277693
 20
394.4810971489934
 30
0.0
 10
88.6098240607572
 20
394.7505385301933
 30
0.0
 10
88.72372145892457
 20
395.0503953316531
 30
0.0
 10
88.83110744940637
 20
395.3938278865974
 30
0.0
 10
88.88266062142272
 20
395.6229353622796
 30
0.0
 10
88.91378374346314
 20
395.7641563511452
 30
0.0
  0
CIRCLE
  5
98
330
75
100
AcDbEntity
  8
$DDT_AUDIT_GENERATED_(97)
  6
Continuous
 62
     7
100
AcDbCircle
 10
68.4738201218
 20
397.6047919962
 30
0.0
 40
40.00000000000001
  0
ARC
  5
99
330
75
100
AcDbEntity
  8
$DDT_AUDIT_GENERATED_(97)
  6
Continuous
 62
     7
100
AcDbCircle
 10
68.4738201218
 20
397.6047919962
 30
0.0
 40
17.28643289244398
100
AcDbArc
 50
58.4958880841
 51
121.4969713482
  0
ARC
  5
9A
330
75
100
AcDbEntity
  8
$DDT_AUDIT_GENERATED_(97)
  6
Continuous
 62
     7
100
AcDbCircle
 10
68.4738201218
 20
397.6047919962
 30
0.0
 40
17.28643289244398
100
AcDbArc
 50
208.4126921092
 51
331.4195419749
  0
ARC
  5
9B
330
75
100
AcDbEntity
  8
$DDT_AUDIT_GENERATED_(97)
  6
Continuous
 62
     7
100
AcDbCircle
 10
68.4738201218
 20
397.6047919962
 30
0.0
 40
16.1
100
AcDbArc
 50
313.1205776194
 51
313.7780593756
  0
ARC
  5
9C
330
75
100
AcDbEntity
  8
$DDT_AUDIT_GENERATED_(97)
  6
Continuous
 62
     7
100
AcDbCircle
 10
68.4738201218
 20
397.6047919962
 30
0.0
 40
16.1
100
AcDbArc
 50
230.3706245582
 51
309.6293754418
  0
ARC
  5
9D
330
75
100
AcDbEntity
  8
$DDT_AUDIT_GENERATED_(97)
  6
Continuous
 62
     7
100
AcDbCircle
 10
68.4738201218
 20
397.6047919962
 30
0.0
 40
16.1
100
AcDbArc
 50
225.8347972946
 51
226.8599187608
  0
ARC
  5
9E
330
75
100
AcDbEntity
  8
$DDT_AUDIT_GENERATED_(97)
  6
Continuous
 62
     7
100
AcDbCircle
 10
68.4738201218
 20
397.6047919962
 30
0.0
 40
16.1
100
AcDbArc
 50
72.8810941485
 51
107.0160155515
  0
LINE
  5
A0
330
75
100
AcDbEntity
  8
$DDT_AUDIT_GENERATED_(9F)
  6
Continuous
 62
     7
100
AcDbLine
 10
59.4238201218
 20
384.8047919962
 30
0.0
 11
77.5238201218
 21
384.8047919962
 31
0.0
  0
LINE
  5
A1
330
75
100
AcDbEntity
  8
$DDT_AUDIT_GENERATED_(9F)
  6
Continuous
 62
     7
100
AcDbLine
 10
77.7238201218
 20
385.0047919962
 30
0.0
 11
77.7238201218
 21
385.2047919962
 31
0.0
  0
LINE
  5
A2
330
75
100
AcDbEntity
  8
$DDT_AUDIT_GENERATED_(9F)
  6
Continuous
 62
     7
100
AcDbLine
 10
59.2238201218
 20
385.2047919962
 30
0.0
 11
59.2238201218
 21
385.0047919962
 31
0.0
  0
ARC
  5
A3
330
75
100
AcDbEntity
  8
$DDT_AUDIT_GENERATED_(9F)
  6
Continuous
 62
     7
100
AcDbCircle
 10
59.4238201218
 20
385.0047919962
 30
0.0
 40
0.1999999999999988
100
AcDbArc
 50
180.0
 51
270.0
  0
ARC
  5
A4
330
75
100
AcDbEntity
  8
$DDT_AUDIT_GENERATED_(9F)
  6
Continuous
 62
     7
100
AcDbCircle
 10
77.5238201218
 20
385.0047919962
 30
0.0
 40
0.2000000000000005
100
AcDbArc
 50
270.0
 51
0.0
  0
LINE
  5
A6
330
75
100
AcDbEntity
  8
$DDT_AUDIT_GENERATED_(A5)
  6
Continuous
 62
     7
100
AcDbLine
 10
79.2238201218
 20
385.2047919962
 30
0.0
 11
57.7238201218
 21
385.2047919962
 31
0.0
  0
LINE
  5
A7
330
75
100
AcDbEntity
  8
$DDT_AUDIT_GENERATED_(A5)
  6
Continuous
 62
     7
100
AcDbLine
 10
79.4738201218
 20
385.5223346442
 30
0.0
 11
79.4738201218
 21
385.3491295648
 31
0.0
  0
LINE
  5
A8
330
75
100
AcDbEntity
  8
$DDT_AUDIT_GENERATED_(A5)
  6
Continuous
 62
     7
100
AcDbLine
 10
79.4738201218
 20
388.2047919962
 30
0.0
 11
80.2738201218
 21
388.2047919962
 31
0.0
  0
LINE
  5
A9
330
75
100
AcDbEntity
  8
$DDT_AUDIT_GENERATED_(A5)
  6
Continuous
 62
     7
100
AcDbLine
 10
79.4738201218
 20
385.5223346442
 30
0.0
 11
79.4738201218
 21
386.388360048
 31
0.0
  0
LINE
  5
AA
330
75
100
AcDbEntity
  8
$DDT_AUDIT_GENERATED_(A5)
  6
Continuous
 62
     7
100
AcDbLine
 10
79.4738201218
 20
386.388360048
 30
0.0
 11
79.4738201218
 21
388.2047919962
 31
0.0
  0
LINE
  5
AB
330
75
100
AcDbEntity
  8
$DDT_AUDIT_GENERATED_(A5)
  6
Continuous
 62
     7
100
AcDbLine
 10
57.4738201218
 20
385.5223346442
 30
0.0
 11
57.4738201218
 21
385.3491295648
 31
0.0
  0
LINE
  5
AC
330
75
100
AcDbEntity
  8
$DDT_AUDIT_GENERATED_(A5)
  6
Continuous
 62
     7
100
AcDbLine
 10
56.6738201218
 20
388.2047919962
 30
0.0
 11
57.4738201218
 21
388.2047919962
 31
0.0
  0
LINE
  5
AD
330
75
100
AcDbEntity
  8
$DDT_AUDIT_GENERATED_(A5)
  6
Continuous
 62
     7
100
AcDbLine
 10
57.4738201218
 20
388.2047919962
 30
0.0
 11
57.4738201218
 21
386.388360048
 31
0.0
  0
LINE
  5
AE
330
75
100
AcDbEntity
  8
$DDT_AUDIT_GENERATED_(A5)
  6
Continuous
 62
     7
100
AcDbLine
 10
57.4738201218
 20
386.388360048
 30
0.0
 11
57.4738201218
 21
385.5223346442
 31
0.0
  0
LINE
  5
AF
330
75
100
AcDbEntity
  8
$DDT_AUDIT_GENERATED_(A5)
  6
Continuous
 62
     7
100
AcDbLine
 10
57.4738201218
 20
385.3491295634
 30
0.0
 11
57.7238201218
 21
385.2047919962
 31
0.0
  0
LINE
  5
B0
330
75
100
AcDbEntity
  8
$DDT_AUDIT_GENERATED_(A5)
  6
Continuous
 62
     7
100
AcDbLine
 10
79.2238201218
 20
385.2047919962
 30
0.0
 11
79.4738201218
 21
385.3491295634
 31
0.0
  0
LINE
  5
B1
330
75
100
AcDbEntity
  8
$DDT_AUDIT_GENERATED_(A5)
  6
Continuous
 62
     7
100
AcDbLine
 10
56.6738201218
 20
392.3491941276
 30
0.0
 11
56.6738201218
 21
388.2047919962
 31
0.0
  0
LINE
  5
B2
330
75
100
AcDbEntity
  8
$DDT_AUDIT_GENERATED_(A5)
  6
Continuous
 62
     7
100
AcDbLine
 10
80.2738201218
 20
388.2047919962
 30
0.0
 11
80.2738201218
 21
392.3489476565
 31
0.0
  0
ARC
  5
B4
330
75
100
AcDbEntity
  8
$DDT_AUDIT_GENERATED_(B3)
  6
Continuous
 62
     7
100
AcDbCircle
 10
68.4738201218
 20
397.6047919962
 30
0.0
 40
16.00000000000001
100
AcDbArc
 50
76.6793677949
 51
102.690413591
  0
ARC
  5
B5
330
75
100
AcDbEntity
  8
$DDT_AUDIT_GENERATED_(B3)
  6
Continuous
 62
     7
100
AcDbCircle
 10
68.4738201218
 20
397.6047919962
 30
0.0
 40
16.00000000000001
100
AcDbArc
 50
223.5402787571
 51
223.7926347481
  0
ARC
  5
B6
330
75
100
AcDbEntity
  8
$DDT_AUDIT_GENERATED_(B3)
  6
Continuous
 62
     7
100
AcDbCircle
 10
68.4738201218
 20
397.6047919962
 30
0.0
 40
16.00000000000001
100
AcDbArc
 50
230.805032574
 51
253.5731639512
  0
ARC
  5
B7
330
75
100
AcDbEntity
  8
$DDT_AUDIT_GENERATED_(B3)
  6
Continuous
 62
     7
100
AcDbCircle
 10
68.4738201218
 20
397.6047919962
 30
0.0
 40
16.00000000000001
100
AcDbArc
 50
286.7811351416
 51
309.194967426
  0
ENDBLK
  5
B9
330
75
100
AcDbEntity
  8
0
100
AcDbBlockEnd
  0
BLOCK
  5
E9
330
BA
100
AcDbEntity
  8
0
100
AcDbBlockBegin
  2
SE1
 70
     0
 10
0.0
 20
0.0
 30
0.0
  3
SE1
  1

  0
SPLINE
  5
BC
330
BA
100
AcDbEntity
  8
$DDT_AUDIT_GENERATED_(77)
  6
Continuous
 62
     7
100
AcDbSpline
210
0.0
220
0.0
230
1.0
 70
     8
 71
     3
 72
    27
 73
    23
 74
     0
 42
0.0000000000762001
 43
0.0000000001
 40
0.0
 40
0.0
 40
0.0
 40
0.0
 40
0.0082289230521869
 40
0.016435595143626
 40
0.0326945052546096
 40
0.0644021768695717
 40
0.0952061513230342
 40
0.1254174059196121
 40
0.1552557633295832
 40
0.1848619999243637
 40
0.2437513936522605
 40
0.3618702841554881
 40
0.421737236703774
 40
0.4824233826801511
 40
0.5440761163899324
 40
0.6067572850786546
 40
0.6704826847881835
 40
0.7351740485622252
 40
0.8043300214150201
 40
0.8668710102808146
 40
0.9365130019056747
 40
1.0
 40
1.0
 40
1.0
 40
1.0
 10
232.4677739591936
 20
408.3648668564205
 30
0.0
 10
232.812512782467
 20
408.4515494673934
 30
0.0
 10
233.5010582590426
 20
408.6246803000432
 30
0.0
 10
234.8711847368912
 20
408.9600722588189
 30
0.0
 10
237.2377391677947
 20
409.4913055710359
 30
0.0
 10
240.6124006320856
 20
410.0593287110061
 30
0.0
 10
244.6433929161624
 20
410.4920256547586
 30
0.0
 10
248.6185807177929
 20
410.7652906903608
 30
0.0
 10
252.551455394428
 20
410.9375794579038
 30
0.0
 10
257.7461805750692
 20
411.0763681554309
 30
0.0
 10
266.8148254475709
 20
411.1665143282379
 30
0.0
 10
277.191156802413
 20
411.1063230174105
 30
0.0
 10
287.6279433772526
 20
411.0244439525213
 30
0.0
 10
295.5890737931111
 20
410.9638442833339
 30
0.0
 10
303.6687873818487
 20
410.9186559211047
 30
0.0
 10
311.8796727844177
 20
410.8986798435333
 30
0.0
 10
320.2246793227665
 20
410.9116811352497
 30
0.0
 10
328.8576468524624
 20
410.9656578871318
 30
0.0
 10
337.4475847845508
 20
411.0641996835753
 30
0.0
 10
346.2650199229564
 20
411.2119342382665
 30
0.0
 10
354.8455249686257
 20
411.3980563904736
 30
0.0
 10
360.6889984966458
 20
411.5556665698534
 30
0.0
 10
363.4756537061554
 20
411.6308282395921
 30
0.0
  0
ARC
  5
BD
330
BA
100
AcDbEntity
  8
$DDT_AUDIT_GENERATED_(77)
  6
Continuous
 62
     7
100
AcDbCircle
 10
229.3261677634
 20
644.4741418655
 30
0.0
 40
236.1301747654975
100
AcDbArc
 50
268.123676988
 51
270.7623171705
  0
SPLINE
  5
BE
330
BA
100
AcDbEntity
  8
$DDT_AUDIT_GENERATED_(77)
  6
Continuous
 62
     7
100
AcDbSpline
210
0.0
220
0.0
230
1.0
 70
     8
 71
     3
 72
    25
 73
    21
 74
     0
 42
0.0000000000760522
 43
0.0000000001
 40
0.0
 40
0.0
 40
0.0
 40
0.0
 40
0.0324616860826804
 40
0.0667654565412339
 40
0.133486274126248
 40
0.1998350365107215
 40
0.2655510481118747
 40
0.3304150183128042
 40
0.3942989383951794
 40
0.4571210653330265
 40
0.5188901272328843
 40
0.6395562973846401
 40
0.757525033654007
 40
0.8162341447642912
 40
0.8754857535631831
 40
0.9056273489416894
 40
0.9363473268582596
 40
0.9678193995025061
 40
0.9838418503357206
 40
1.0
 40
1.0
 40
1.0
 40
1.0
 10
363.5072297969836
 20
409.0736706087025
 30
0.0
 10
362.0807609661996
 20
409.0456307775052
 30
0.0
 10
359.1468763094314
 20
408.9879599556777
 30
0.0
 10
353.2835600174818
 20
408.7993884480206
 30
0.0
 10
345.9361435571788
 20
408.4783937234274
 30
0.0
 10
337.21676675292
 20
408.0050775669665
 30
0.0
 10
328.5843215293452
 20
407.478448360662
 30
0.0
 10
320.0633627945135
 20
406.9305925683782
 30
0.0
 10
311.6707570708354
 20
406.3843069689194
 30
0.0
 10
303.4135088936451
 20
405.8608579797585
 30
0.0
 10
292.6661321328954
 20
405.2266618081994
 30
0.0
 10
279.4954314026667
 20
404.5887816272466
 30
0.0
 10
266.4418648517251
 20
404.3576022810598
 30
0.0
 10
256.0990905236851
 20
404.6939348207755
 30
0.0
 10
249.631396565118
 20
405.2320989938631
 30
0.0
 10
244.4347668864529
 20
405.9392568461365
 30
0.0
 10
240.4781447794417
 20
406.6330012688892
 30
0.0
 10
237.1693126781555
 20
407.3329588471562
 30
0.0
 10
234.4972391244782
 20
407.9305194978695
 30
0.0
 10
233.1461614180471
 20
408.2196779585475
 30
0.0
 10
232.4677739591936
 20
408.3648668564205
 30
0.0
  0
ARC
  5
BF
330
BA
100
AcDbEntity
  8
$DDT_AUDIT_GENERATED_(77)
  6
Continuous
 62
     7
100
AcDbCircle
 10
359.7161019829
 20
490.5306123966
 30
0.0
 40
81.54511644204575
100
AcDbArc
 50
272.6647083036
 51
277.9638390465
  0
SPLINE
  5
C0
330
BA
100
AcDbEntity
  8
$DDT_AUDIT_GENERATED_(77)
  6
Continuous
 62
     7
100
AcDbSpline
210
0.0
220
0.0
230
1.0
 70
     8
 71
     3
 72
    12
 73
     8
 74
     0
 42
0.0000000016687167
 43
0.0000000001
 40
0.5000283858426537
 40
0.5000283858426537
 40
0.5000283858426537
 40
0.5000283858426537
 40
0.5000847912175713
 40
0.6373786768596724
 40
0.7556874637496677
 40
0.8867021477397121
 40
1.0
 40
1.0
 40
1.0
 40
1.0
 10
373.9736678360986
 20
410.234191724273
 30
0.0
 10
373.9736678957188
 20
410.2341917355382
 30
0.0
 10
373.9737808370735
 20
410.2342150203459
 30
0.0
 10
373.8278728776021
 20
410.2154647240957
 30
0.0
 10
373.2001697350105
 20
410.128850289946
 30
0.0
 10
372.2849423151805
 20
409.9935314799276
 30
0.0
 10
371.4166739599516
 20
409.8421450654242
 30
0.0
 10
371.0140219252144
 20
409.7719409085361
 30
0.0
  0
SPLINE
  5
C1
330
BA
100
AcDbEntity
  8
$DDT_AUDIT_GENERATED_(77)
  6
Continuous
 62
     7
100
AcDbSpline
210
0.0
220
0.0
230
1.0
 70
     8
 71
     3
 72
    29
 73
    25
 74
     0
 42
0.0000000000696354
 43
0.0000000001
 40
0.0
 40
0.0
 40
0.0
 40
0.0
 40
0.0307978274114403
 40
0.0632878742186962
 40
0.0974263219396975
 40
0.1331579586202707
 40
0.1653425597547832
 40
0.1993364478147003
 40
0.2648248611485347
 40
0.3293805178791385
 40
0.3928777976268706
 40
0.4337355678183106
 40
0.4640679940935644
 40
0.516536947483923
 40
0.6363827998861301
 40
0.75430724178216
 40
0.8135559121190056
 40
0.8737714487752977
 40
0.9044682862762331
 40
0.9356772915569426
 40
0.9514993548314328
 40
0.9674814239098495
 40
0.9848415364590327
 40
1.0
 40
1.0
 40
1.0
 40
1.0
 10
365.0037603358326
 20
393.5688207344405
 30
0.0
 10
363.5300035853773
 20
393.4711972990668
 30
0.0
 10
360.501512951745
 20
393.2705864047924
 30
0.0
 10
355.8409343277665
 20
392.9553529230141
 30
0.0
 10
350.9467863781431
 20
392.6170158284007
 30
0.0
 10
346.0705210338734
 20
392.2707135233929
 30
0.0
 10
341.2047226395103
 20
391.9156165380401
 30
0.0
 10
334.9225919433188
 20
391.4451764997796
 30
0.0
 10
327.1039594743871
 20
390.8373352757553
 30
0.0
 10
317.8883215258177
 20
390.0923516171659
 30
0.0
 10
309.8496899621447
 20
389.4262098847865
 30
0.0
 10
303.439472309975
 20
388.893587267501
 30
0.0
 10
297.5528387507238
 20
388.4080252385554
 30
0.0
 10
287.9019457172047
 20
387.6268396583767
 30
0.0
 10
274.05875712131
 20
386.5945209745493
 30
0.0
 10
259.8396333926825
 20
385.87779826053
 30
0.0
 10
248.4546256400796
 20
385.7023879104191
 30
0.0
 10
241.2527693465294
 20
385.8073871176023
 30
0.0
 10
235.4031571528088
 20
386.0267622374417
 30
0.0
 10
231.6829295371764
 20
386.2087020083908
 30
0.0
 10
228.6671817359463
 20
386.3602149168311
 30
0.0
 10
226.313427853478
 20
386.4685051807338
 30
0.0
 10
223.9898979528014
 20
386.5562598488459
 30
0.0
 10
222.4306849957576
 20
386.5814519165268
 30
0.0
 10
221.7038612659477
 20
386.5931951441025
 30
0.0
  0
ARC
  5
C2
330
BA
100
AcDbEntity
  8
$DDT_AUDIT_GENERATED_(77)
  6
Continuous
 62
     7
100
AcDbCircle
 10
376.24798153
 20
456.3389377467
 30
0.0
 40
60.03786029365709
100
AcDbArc
 50
266.3520505243
 51
269.2265328693
  0
ARC
  5
C3
330
BA
100
AcDbEntity
  8
$DDT_AUDIT_GENERATED_(77)
  6
Continuous
 62
     7
100
AcDbCircle
 10
371.5439567682
 20
319.2611198168
 30
0.0
 40
77.16666891134795
100
AcDbArc
 50
89.3435671906
 51
95.0143347973
  0
SPLINE
  5
C4
330
BA
100
AcDbEntity
  8
$DDT_AUDIT_GENERATED_(77)
  6
Continuous
 62
     7
100
AcDbSpline
210
0.0
220
0.0
230
1.0
 70
     8
 71
     3
 72
    26
 73
    22
 74
     0
 42
0.0000000000696862
 43
0.0000000001
 40
0.0
 40
0.0
 40
0.0
 40
0.0
 40
0.0155606605615778
 40
0.0326812779002644
 40
0.0487515096241206
 40
0.0646496944233483
 40
0.0803763915951622
 40
0.0959364787906371
 40
0.1265940755508976
 40
0.1864763418975743
 40
0.2452736025641869
 40
0.3625022258021053
 40
0.4820887307829811
 40
0.6058323007736109
 40
0.6694662902643367
 40
0.7342070492082805
 40
0.7999172554722074
 40
0.8663424376966975
 40
0.933171753998285
 40
0.9675414503564601
 40
1.0
 40
1.0
 40
1.0
 40
1.0
 10
221.7038612659477
 20
386.5931951441025
 30
0.0
 10
222.4447287756804
 20
386.6563876558578
 30
0.0
 10
224.0007357894595
 20
386.7891077309289
 30
0.0
 10
226.3095742863995
 20
387.0510510414474
 30
0.0
 10
228.6267663552578
 20
387.3486918414034
 30
0.0
 10
230.8731288303102
 20
387.662342833745
 30
0.0
 10
233.0938643060612
 20
387.9833218466565
 30
0.0
 10
236.0096103037678
 20
388.4091660592072
 30
0.0
 10
241.0107497948528
 20
389.1237101161311
 30
0.0
 10
248.0817314048801
 20
390.0110641044478
 30
0.0
 10
259.3035597357355
 20
391.110534206048
 30
0.0
 10
273.4196335119294
 20
392.0419320335899
 30
0.0
 10
290.659748747531
 20
392.8211953144132
 30
0.0
 10
305.3438281367664
 20
393.3637272332759
 30
0.0
 10
317.4061627271597
 20
393.7970513257952
 30
0.0
 10
326.6930942181959
 20
394.1396661909202
 30
0.0
 10
336.1148431922902
 20
394.5126429012396
 30
0.0
 10
345.6372160934648
 20
394.9418941106677
 30
0.0
 10
353.6589136569215
 20
395.3731224892923
 30
0.0
 10
360.0526446905513
 20
395.7795511933341
 30
0.0
 10
363.2474735663886
 20
396.0170921449032
 30
0.0
 10
364.7992058173379
 20
396.1324611962738
 30
0.0
  0
ARC
  5
C5
330
BA
100
AcDbEntity
  8
$DDT_AUDIT_GENERATED_(77)
  6
Continuous
 62
     7
100
AcDbCircle
 10
365.9762913928
 20
266.8347150271
 30
0.0
 40
125.9377146617992
100
AcDbArc
 50
90.1860522075
 51
101.4076263862
  0
SPLINE
  5
C6
330
BA
100
AcDbEntity
  8
$DDT_AUDIT_GENERATED_(77)
  6
Continuous
 62
     7
100
AcDbSpline
210
0.0
220
0.0
230
1.0
 70
     8
 71
     3
 72
    48
 73
    44
 74
     0
 42
0.0000000000633089
 43
0.0000000001
 40
0.0
 40
0.0
 40
0.0
 40
0.0
 40
0.0306768456830447
 40
0.0665182153040907
 40
0.1010891142863943
 40
0.1343026380908318
 40
0.1660978458354993
 40
0.1964350545557638
 40
0.223682815872968
 40
0.2496063286772023
 40
0.2742059502204299
 40
0.29748830987884
 40
0.3194646179138106
 40
0.3401492578629325
 40
0.3595586326215992
 40
0.3777102342864005
 40
0.3946219087197056
 40
0.4103112872981959
 40
0.4245471909945386
 40
0.4376356603068112
 40
0.4499959192216367
 40
0.4633303079594799
 40
0.4801915623360004
 40
0.4985676660448564
 40
0.5184348702597945
 40
0.5397702542512693
 40
0.562553031346594
 40
0.5863213397920632
 40
0.6114587126291947
 40
0.6379623204965109
 40
0.6658403721160802
 40
0.6905893814009961
 40
0.7163709655726207
 40
0.7432267151929581
 40
0.771219017870582
 40
0.8004390451627514
 40
0.8310181427740854
 40
0.8497472855338867
 40
0.8690624235382387
 40
0.8890254303038801
 40
0.9097122660607153
 40
0.9312160746685548
 40
0.9491175879786216
 40
0.9491175879786216
 40
0.9491175879786216
 40
0.9491175879786216
 10
371.5082728854219
 20
412.4726293498431
 30
0.0
 10
369.7315815319378
 20
412.4874246967082
 30
0.0
 10
366.4790934689261
 20
412.5144727204399
 30
0.0
 10
361.0441130521067
 20
412.5574792713112
 30
0.0
 10
355.6184192023616
 20
412.5994835357436
 30
0.0
 10
350.3677351470332
 20
412.6395977320944
 30
0.0
 10
345.3495507886928
 20
412.6779286480196
 30
0.0
 10
340.643074853616
 20
412.7142505996429
 30
0.0
 10
336.2463449629038
 20
412.7488185006909
 30
0.0
 10
332.151574388169
 20
412.7817884337662
 30
0.0
 10
328.2656287520161
 20
412.8139582647103
 30
0.0
 10
324.5875078034079
 20
412.8453344579846
 30
0.0
 10
321.1155252057395
 20
412.875875316131
 30
0.0
 10
317.8474666059157
 20
412.9055031769082
 30
0.0
 10
314.7807898285012
 20
412.9341157958391
 30
0.0
 10
311.9127694069697
 20
412.9615969054253
 30
0.0
 10
309.2406152618769
 20
412.9878253022514
 30
0.0
 10
306.7746298609762
 20
413.0125512368829
 30
0.0
 10
304.509942059642
 20
413.035678152843
 30
0.0
 10
302.4205368880283
 20
413.0573464984276
 30
0.0
 10
300.378599595191
 20
413.0788007042241
 30
0.0
 10
298.1380275082782
 20
413.102620201902
 30
0.0
 10
295.5807240973426
 20
413.1301293941223
 30
0.0
 10
292.6794713558871
 20
413.161664715843
 30
0.0
 10
289.5426584052447
 20
413.195990760246
 30
0.0
 10
286.1738349771714
 20
413.2329006233441
 30
0.0
 10
282.5996159667503
 20
413.2718039514529
 30
0.0
 10
278.825214921716
 20
413.3121914557523
 30
0.0
 10
274.8548984044838
 20
413.3533968706275
 30
0.0
 10
270.6681820217868
 20
413.3947934599493
 30
0.0
 10
266.5018856923223
 20
413.4331317011637
 30
0.0
 10
262.3735744917426
 20
413.4677086104549
 30
0.0
 10
258.2990590430656
 20
413.4981018122173
 30
0.0
 10
254.0537473655531
 20
413.525265346564
 30
0.0
 10
249.6273651408999
 20
413.5483704154175
 30
0.0
 10
245.0049099716889
 20
413.5667324869461
 30
0.0
 10
240.8701794203668
 20
413.5780236567267
 30
0.0
 10
237.2569319777111
 20
413.5846962605397
 30
0.0
 10
234.2027486645852
 20
413.5885598868535
 30
0.0
 10
231.0451103655355
 20
413.591061055514
 30
0.0
 10
227.7737095313011
 20
413.5925847113264
 30
0.0
 10
224.6053327572909
 20
413.5935938371371
 30
0.0
 10
222.5399666275837
 20
413.594411803171
 30
0.0
 10
221.5948019529295
 20
413.5948779844937
 30
0.0
  0
ARC
  5
C7
330
BA
100
AcDbEntity
  8
$DDT_AUDIT_GENERATED_(77)
  6
Continuous
 62
     7
100
AcDbCircle
 10
-150.6979839259
 20
5443.3325357941
 30
0.0
 40
5076.878189079311
100
AcDbArc
 50
275.8364483652
 51
275.9231632714
  0
SPLINE
  5
C8
330
BA
100
AcDbEntity
  8
$DDT_AUDIT_GENERATED_(77)
  6
Continuous
 62
     7
100
AcDbSpline
210
0.0
220
0.0
230
1.0
 70
     8
 71
     3
 72
    39
 73
    35
 74
     0
 42
0.0000000000781891
 43
0.0000000001
 40
0.0628554626800608
 40
0.0628554626800608
 40
0.0628554626800608
 40
0.0628554626800608
 40
0.0838472251903472
 40
0.1102960340049529
 40
0.1358509763305289
 40
0.1606220352705363
 40
0.1847001047360322
 40
0.2081602051260686
 40
0.2439224136585102
 40
0.2784962056980121
 40
0.3120198253017259
 40
0.3445944389605157
 40
0.3896246481780249
 40
0.4330099401778677
 40
0.4748370419830671
 40
0.5151523944752616
 40
0.5539739056241189
 40
0.5912987792251596
 40
0.6271090453722634
 40
0.6613757545740754
 40
0.694062362766624
 40
0.725127565264992
 40
0.7540175357461975
 40
0.7812595676217443
 40
0.8068129126299312
 40
0.8306389495373383
 40
0.8530865828443186
 40
0.8736724475468635
 40
0.8924259657708349
 40
0.9115805190036987
 40
0.9322908699621153
 40
0.9541566081911336
 40
0.9775423716250815
 40
1.0
 40
1.0
 40
1.0
 40
1.0
 10
221.5948059510345
 20
381.5931540740854
 30
0.0
 10
222.4916771994753
 20
381.5957826573712
 30
0.0
 10
224.505175416072
 20
381.604893225719
 30
0.0
 10
227.6213799023122
 20
381.63138211246
 30
0.0
 10
230.8930453105946
 20
381.6750062858508
 30
0.0
 10
234.0648900040805
 20
381.7331691291578
 30
0.0
 10
237.1467313672095
 20
381.8053978291359
 30
0.0
 10
240.696657969412
 20
381.9067135599678
 30
0.0
 10
244.6930457616832
 20
382.0465526172222
 30
0.0
 10
249.1169071842631
 20
382.2351098288791
 30
0.0
 10
253.4035691549608
 20
382.4485707790835
 30
0.0
 10
258.1338007516889
 20
382.7154957538073
 30
0.0
 10
263.2815720730271
 20
383.0436077785805
 30
0.0
 10
268.8202197626844
 20
383.4378394373923
 30
0.0
 10
274.1558804295051
 20
383.8510866241543
 30
0.0
 10
279.2954182448913
 20
384.2758706915992
 30
0.0
 10
284.241890804851
 20
384.7056965575243
 30
0.0
 10
288.9955877043794
 20
385.135003876538
 30
0.0
 10
293.5547623498264
 20
385.5590860074123
 30
0.0
 10
297.9161822341378
 20
385.9739976473676
 30
0.0
 10
302.0755707735115
 20
386.3764601449765
 30
0.0
 10
306.0063305425657
 20
386.7616492902721
 30
0.0
 10
309.7057496341227
 20
387.1275426135787
 30
0.0
 10
313.1710956199747
 20
387.4725928235503
 30
0.0
 10
316.4214610152394
 20
387.7978053863795
 30
0.0
 10
319.4683312205066
 20
388.1037031388969
 30
0.0
 10
322.3044408158579
 20
388.3891259887509
 30
0.0
 10
324.925250720836
 20
388.6533154742885
 30
0.0
 10
327.4066399137161
 20
388.9037251204971
 30
0.0
 10
329.8921995929744
 20
389.1547472240775
 30
0.0
 10
332.5141911047484
 20
389.4196945652213
 30
0.0
 10
335.2974801598376
 20
389.7010473089515
 30
0.0
 10
338.227427999266
 20
389.9972964809839
 30
0.0
 10
340.0304505247429
 20
390.1796457366351
 30
0.0
 10
341.0782821735535
 20
390.2856204392641
 30
0.0
  0
LINE
  5
C9
330
BA
100
AcDbEntity
  8
$DDT_AUDIT_GENERATED_(77)
  6
Continuous
 62
     7
100
AcDbLine
 10
375.4375206184
 20
396.3065645819
 30
0.0
 11
373.973668134
 21
410.2341906259
 31
0.0
  0
ARC
  5
CA
330
BA
100
AcDbEntity
  8
$DDT_AUDIT_GENERATED_(77)
  6
Continuous
 62
     7
100
AcDbCircle
 10
371.4873632702
 20
409.9728705943
 30
0.0
 40
2.500000005647666
100
AcDbArc
 50
6.0000001149
 51
89.5200427601
  0
ARC
  5
CB
330
BA
100
AcDbEntity
  8
$DDT_AUDIT_GENERATED_(77)
  6
Continuous
 62
     7
100
AcDbCircle
 10
372.951217623
 20
396.045226796
 30
0.0
 40
2.500000004842641
100
AcDbArc
 50
275.9164845106
 51
5.9999998883
  0
LINE
  5
CC
330
BA
100
AcDbEntity
  8
$DDT_AUDIT_GENERATED_(97)
  6
Continuous
 62
     7
100
AcDbLine
 10
215.733978959
 20
357.6047919962
 30
0.0
 11
215.733978959
 21
437.6047919962
 31
0.0
  0
LINE
  5
CD
330
BA
100
AcDbEntity
  8
$DDT_AUDIT_GENERATED_(97)
  6
Continuous
 62
     7
100
AcDbLine
 10
213.2534665262
 20
357.6079171182
 30
0.0
 11
213.2534665262
 21
437.6047919962
 31
0.0
  0
LINE
  5
CE
330
BA
100
AcDbEntity
  8
$DDT_AUDIT_GENERATED_(97)
  6
Continuous
 62
     7
100
AcDbLine
 10
221.5948019818
 20
380.3183591037
 30
0.0
 11
221.5948019818
 21
414.8912248886
 31
0.0
  0
ARC
  5
CF
330
BA
100
AcDbEntity
  8
$DDT_AUDIT_GENERATED_(97)
  6
Continuous
 62
     7
100
AcDbCircle
 10
214.2534920806
 20
317.6056024966
 30
0.0
 40
40.00231462166251
100
AcDbArc
 50
89.2839207779
 51
90.0000366026
  0
LINE
  5
D0
330
BA
100
AcDbEntity
  8
$DDT_AUDIT_GENERATED_(97)
  6
Continuous
 62
     7
100
AcDbLine
 10
213.2534665262
 20
357.6079171182
 30
0.0
 11
214.2534665257
 21
357.6079171182
 31
0.0
  0
LINE
  5
D1
330
BA
100
AcDbEntity
  8
$DDT_AUDIT_GENERATED_(97)
  6
Continuous
 62
     7
100
AcDbLine
 10
215.733978959
 20
437.6047919962
 30
0.0
 11
213.2534665262
 21
437.6047919962
 31
0.0
  0
LINE
  5
D2
330
BA
100
AcDbEntity
  8
$DDT_AUDIT_GENERATED_(97)
  6
Continuous
 62
     7
100
AcDbLine
 10
214.7470545118
 20
357.6047919962
 30
0.0
 11
215.733978959
 21
357.6047919962
 31
0.0
  0
ARC
  5
D3
330
BA
100
AcDbEntity
  8
$DDT_AUDIT_GENERATED_(97)
  6
Continuous
 62
     7
100
AcDbCircle
 10
-130.0867061102
 20
447.1317485106
 30
0.0
 40
357.9719432272943
100
AcDbArc
 50
345.6411515199
 51
349.242991646
  0
ARC
  5
D4
330
BA
100
AcDbEntity
  8
$DDT_AUDIT_GENERATED_(97)
  6
Continuous
 62
     7
100
AcDbCircle
 10
-130.0867061102
 20
348.0778354817
 30
0.0
 40
357.9719432272943
100
AcDbArc
 50
10.757008354
 51
14.3588484801
  0
ARC
  5
D5
330
BA
100
AcDbEntity
  8
$DDT_AUDIT_GENERATED_(97)
  6
Continuous
 62
     7
100
AcDbCircle
 10
215.733978959
 20
436.6047919962
 30
0.0
 40
1.000000000000002
100
AcDbArc
 50
14.3588484801
 51
90.0
  0
ARC
  5
D6
330
BA
100
AcDbEntity
  8
$DDT_AUDIT_GENERATED_(97)
  6
Continuous
 62
     7
100
AcDbCircle
 10
215.733978959
 20
358.6047919962
 30
0.0
 40
1.000000000000001
100
AcDbArc
 50
270.0
 51
345.6411515199
  0
LINE
  5
D7
330
BA
100
AcDbEntity
  8
$DDT_AUDIT_GENERATED_(9F)
  6
Continuous
 62
     7
100
AcDbLine
 10
362.3673436319
 20
384.8047919962
 30
0.0
 11
344.2673436319
 21
384.8047919962
 31
0.0
  0
LINE
  5
D8
330
BA
100
AcDbEntity
  8
$DDT_AUDIT_GENERATED_(9F)
  6
Continuous
 62
     7
100
AcDbLine
 10
362.5673436319
 20
385.0047919962
 30
0.0
 11
362.5673436319
 21
385.2047919962
 31
0.0
  0
LINE
  5
D9
330
BA
100
AcDbEntity
  8
$DDT_AUDIT_GENERATED_(9F)
  6
Continuous
 62
     7
100
AcDbLine
 10
344.0673436319
 20
385.2047919962
 30
0.0
 11
344.0673436319
 21
385.0047919962
 31
0.0
  0
ARC
  5
DA
330
BA
100
AcDbEntity
  8
$DDT_AUDIT_GENERATED_(9F)
  6
Continuous
 62
     7
100
AcDbCircle
 10
344.2673436319
 20
385.0047919962
 30
0.0
 40
0.2000000000000057
100
AcDbArc
 50
180.0
 51
270.0
  0
ARC
  5
DB
330
BA
100
AcDbEntity
  8
$DDT_AUDIT_GENERATED_(9F)
  6
Continuous
 62
     7
100
AcDbCircle
 10
362.3673436319
 20
385.0047919962
 30
0.0
 40
0.2000000000000005
100
AcDbArc
 50
270.0
 51
0.0
  0
LINE
  5
DC
330
BA
100
AcDbEntity
  8
$DDT_AUDIT_GENERATED_(A5)
  6
Continuous
 62
     7
100
AcDbLine
 10
342.5673436319
 20
385.2047919962
 30
0.0
 11
364.0673436319
 21
385.2047919962
 31
0.0
  0
SPLINE
  5
DD
330
BA
100
AcDbEntity
  8
$DDT_AUDIT_GENERATED_(A5)
  6
Continuous
 62
     7
100
AcDbSpline
210
0.0
220
0.0
230
1.0
 70
     8
 71
     3
 72
    10
 73
     6
 74
     0
 42
0.0000000019260148
 43
0.0000000001
 40
0.0
 40
0.0
 40
0.0
 40
0.0
 40
0.5
 40
0.5
 40
1.0
 40
1.0
 40
1.0
 40
1.0
 10
355.9038470631496
 20
385.5223346442048
 30
0.0
 10
355.0415322140017
 20
385.4083779472198
 30
0.0
 10
354.1792879421333
 20
385.3491194515032
 30
0.0
 10
352.4549523473812
 20
385.3491396780141
 30
0.0
 10
351.5928610224374
 20
385.408416803539
 30
0.0
 10
350.7308402005985
 20
385.5223346442048
 30
0.0
  0
LINE
  5
DE
330
BA
100
AcDbEntity
  8
$DDT_AUDIT_GENERATED_(A5)
  6
Continuous
 62
     7
100
AcDbLine
 10
357.5881749327
 20
388.2047919962
 30
0.0
 11
349.0465123311
 21
388.2047919962
 31
0.0
  0
LINE
  5
DF
330
BA
100
AcDbEntity
  8
$DDT_AUDIT_GENERATED_(A5)
  6
Continuous
 62
     7
100
AcDbLine
 10
357.5881749327
 20
388.2047919962
 30
0.0
 11
357.5881749327
 21
386.388360048
 31
0.0
  0
SPLINE
  5
E0
330
BA
100
AcDbEntity
  8
$DDT_AUDIT_GENERATED_(A5)
  6
Continuous
 62
     7
100
AcDbSpline
210
0.0
220
0.0
230
1.0
 70
     8
 71
     3
 72
    14
 73
    10
 74
     0
 42
0.0000000049320844
 43
0.0000000001
 40
0.0
 40
0.0
 40
0.0
 40
0.0
 40
0.1249999999999999
 40
0.1249999999999999
 40
0.2499999999999999
 40
0.2499999999999999
 40
0.4999999999999999
 40
0.4999999999999999
 40
1.0
 40
1.0
 40
1.0
 40
1.0
 10
357.5881749326866
 20
386.3883600479892
 30
0.0
 10
357.5881749326866
 20
386.3039348570198
 30
0.0
 10
357.5559998652702
 20
386.2198927345453
 30
0.0
 10
357.460179890302
 20
386.0807132340723
 30
0.0
 10
357.3970335748888
 20
386.0216927087426
 30
0.0
 10
357.1946881660077
 20
385.8705804021174
 30
0.0
 10
357.0387002722156
 20
385.7991902523665
 30
0.0
 10
356.567907106006
 20
385.6278350987093
 30
0.0
 10
356.2350285807674
 20
385.5661009691005
 30
0.0
 10
355.9038470631496
 20
385.5223346442048
 30
0.0
  0
SPLINE
  5
E1
330
BA
100
AcDbEntity
  8
$DDT_AUDIT_GENERATED_(A5)
  6
Continuous
 62
     7
100
AcDbSpline
210
0.0
220
0.0
230
1.0
 70
     8
 71
     3
 72
    14
 73
    10
 74
     0
 42
0.0000000049319876
 43
0.0000000001
 40
0.0
 40
0.0
 40
0.0
 40
0.0
 40
0.5000000000000002
 40
0.5000000000000002
 40
0.7500000000000003
 40
0.7500000000000003
 40
0.8750000000000001
 40
0.8750000000000001
 40
1.0
 40
1.0
 40
1.0
 40
1.0
 10
350.7308402005985
 20
385.5223346442048
 30
0.0
 10
350.3982376051659
 20
385.5662887674831
 30
0.0
 10
350.0679402504339
 20
385.6273552846671
 30
0.0
 10
349.5947907351093
 20
385.7996544983724
 30
0.0
 10
349.4401881018073
 20
385.870668805712
 30
0.0
 10
349.2389974969073
 20
386.0205755990919
 30
0.0
 10
349.1753910031529
 20
386.0796790423417
 30
0.0
 10
349.0788683788991
 20
386.2193833080037
 30
0.0
 10
349.0465123310592
 20
386.3035345546303
 30
0.0
 10
349.0465123310615
 20
386.3883600479892
 30
0.0
  0
LINE
  5
E2
330
BA
100
AcDbEntity
  8
$DDT_AUDIT_GENERATED_(A5)
  6
Continuous
 62
     7
100
AcDbLine
 10
349.0465123311
 20
386.388360048
 30
0.0
 11
349.0465123311
 21
388.2047919962
 31
0.0
  0
LINE
  5
E3
330
BA
100
AcDbEntity
  8
$DDT_AUDIT_GENERATED_(A5)
  6
Continuous
 62
     7
100
AcDbLine
 10
342.0173436319
 20
385.5223346442
 30
0.0
 11
342.5673436319
 21
385.2047919962
 31
0.0
  0
LINE
  5
E4
330
BA
100
AcDbEntity
  8
$DDT_AUDIT_GENERATED_(A5)
  6
Continuous
 62
     7
100
AcDbLine
 10
364.0673436319
 20
385.2047919962
 30
0.0
 11
364.6173436319
 21
385.5223346442
 31
0.0
  0
ARC
  5
E5
330
BA
100
AcDbEntity
  8
$DDT_AUDIT_GENERATED_(A5)
  6
Continuous
 62
     7
100
AcDbCircle
 10
364.1173436319
 20
386.388360048
 30
0.0
 40
1.000000000000001
100
AcDbArc
 50
300.0
 51
0.0
  0
ARC
  5
E6
330
BA
100
AcDbEntity
  8
$DDT_AUDIT_GENERATED_(A5)
  6
Continuous
 62
     7
100
AcDbCircle
 10
342.5173436319
 20
386.388360048
 30
0.0
 40
1.000000000000001
100
AcDbArc
 50
180.0
 51
240.0
  0
LINE
  5
E7
330
BA
100
AcDbEntity
  8
$DDT_AUDIT_GENERATED_(A5)
  6
Continuous
 62
     7
100
AcDbLine
 10
341.5173436319
 20
390.3879174521
 30
0.0
 11
341.5173436319
 21
386.388360048
 31
0.0
  0
LINE
  5
E8
330
BA
100
AcDbEntity
  8
$DDT_AUDIT_GENERATED_(A5)
  6
Continuous
 62
     7
100
AcDbLine
 10
365.1173436319
 20
386.388360048
 30
0.0
 11
365.1173436319
 21
392.7537562663
 31
0.0
  0
ENDBLK
  5
EA
330
BA
100
AcDbEntity
  8
0
100
AcDbBlockEnd
  0
BLOCK
  5
109
330
EB
100
AcDbEntity
  8
0
100
AcDbBlockBegin
  2
SE2
 70
     0
 10
0.0
 20
0.0
 30
0.0
  3
SE2
  1

  0
ARC
  5
ED
330
EB
100
AcDbEntity
  8
$DDT_AUDIT_GENERATED_(77)
  6
Continuous
 62
     7
100
AcDbCircle
 10
395.4764651348
 20
268.7265083986
 30
0.0
 40
315.6982067404776
100
AcDbArc
 50
181.549139758
 51
183.5244932328
  0
SPLINE
  5
EE
330
EB
100
AcDbEntity
  8
$DDT_AUDIT_GENERATED_(77)
  6
Continuous
 62
     7
100
AcDbSpline
210
0.0
220
0.0
230
1.0
 70
     8
 71
     3
 72
    29
 73
    25
 74
     0
 42
0.0000000000760312
 43
0.0000000001
 40
0.0
 40
0.0
 40
0.0
 40
0.0
 40
0.0309553433674945
 40
0.0634885206067987
 40
0.0975627613915357
 40
0.1331320544617144
 40
0.1956724547235045
 40
0.264828554431628
 40
0.3295196913831681
 40
0.3932448675902951
 40
0.4559258163519086
 40
0.5175783337037052
 40
0.578264266766317
 40
0.63813100948925
 40
0.7562494873542563
 40
0.8151386763677089
 40
0.844744810367222
 40
0.8745830645454138
 40
0.904794214491302
 40
0.9355980804921351
 40
0.9673056327642113
 40
0.9835644755587555
 40
0.9917711123355643
 40
1.0
 40
1.0
 40
1.0
 40
1.0
 10
86.44065895525846
 20
118.3110065316721
 30
0.0
 10
86.42978401287044
 20
119.6697251453583
 30
0.0
 10
86.40747981822132
 20
122.4564180170788
 30
0.0
 10
86.2883105092417
 20
126.7376310658021
 30
0.0
 10
86.1042197617319
 20
131.2193319659849
 30
0.0
 10
85.78605226977237
 20
137.013747766385
 30
0.0
 10
85.26159763893374
 20
144.3390786672398
 30
0.0
 10
84.5056552579315
 20
152.9289934948875
 30
0.0
 10
83.64948128144918
 20
161.5619835072225
 30
0.0
 10
82.77126314167393
 20
169.9069887679807
 30
0.0
 10
81.89389106255366
 20
178.1178748614508
 30
0.0
 10
81.04620798802847
 20
186.1975886368394
 30
0.0
 10
80.25333916429383
 20
194.1587193972207
 30
0.0
 10
79.30753493989596
 20
204.5955064714743
 30
0.0
 10
78.55111022444166
 20
214.9718384460797
 30
0.0
 10
78.23480438390851
 20
224.040483858723
 30
0.0
 10
78.21072034377846
 20
229.235209385597
 30
0.0
 10
78.29868728866393
 20
233.1680842463687
 30
0.0
 10
78.52332630294345
 20
237.1432722943562
 30
0.0
 10
78.93189455313073
 20
241.174263631915
 30
0.0
 10
79.46365033391413
 20
244.5489266722844
 30
0.0
 10
79.91410487225554
 20
246.9154776461465
 30
0.0
 10
80.18107448850304
 20
248.2856099617902
 30
0.0
 10
80.31054434353946
 20
248.974152847936
 30
0.0
 10
80.375366911072
 20
249.3188903756306
 30
0.0
  0
SPLINE
  5
EF
330
EB
100
AcDbEntity
  8
$DDT_AUDIT_GENERATED_(77)
  6
Continuous
 62
     7
100
AcDbSpline
210
0.0
220
0.0
230
1.0
 70
     8
 71
     3
 72
    27
 73
    23
 74
     0
 42
0.0000000000760305
 43
0.0000000001
 40
0.0
 40
0.0
 40
0.0
 40
0.0
 40
0.0082289230521869
 40
0.016435595143626
 40
0.0326945052546096
 40
0.0644021768695717
 40
0.0952061513230342
 40
0.1254174059196121
 40
0.1552557633295832
 40
0.1848619999243637
 40
0.2437513936522605
 40
0.3618702841554881
 40
0.421737236703774
 40
0.4824233826801511
 40
0.5440761163899324
 40
0.6067572850786546
 40
0.6704826847881835
 40
0.7351740485622252
 40
0.8043300214150201
 40
0.8668710102808146
 40
0.9365130019056747
 40
1.0
 40
1.0
 40
1.0
 40
1.0
 10
56.57227333259769
 20
249.3188903756316
 30
0.0
 10
56.63709365348365
 20
248.9741515523582
 30
0.0
 10
56.76655902139802
 20
248.2856060757826
 30
0.0
 10
57.03354403288441
 20
246.915479597934
 30
0.0
 10
57.48399395546669
 20
244.5489251670305
 30
0.0
 10
58.01575644151867
 20
241.1742637027396
 30
0.0
 10
58.4243234260388
 20
237.1432714186628
 30
0.0
 10
58.64896201275929
 20
233.1680836170324
 30
0.0
 10
58.73692789582495
 20
229.2352089403972
 30
0.0
 10
58.71284259803139
 20
224.040483759756
 30
0.0
 10
58.3965348007019
 20
214.9718388872543
 30
0.0
 10
57.64010871765551
 20
204.5955075324121
 30
0.0
 10
56.69430285276879
 20
194.1587209575726
 30
0.0
 10
55.90143475923718
 20
186.197590541714
 30
0.0
 10
55.05374569858203
 20
178.1178769529765
 30
0.0
 10
54.17639424102287
 20
169.9069915504075
 30
0.0
 10
53.29809573089212
 20
161.5619850120587
 30
0.0
 10
52.44223483724405
 20
152.9290174823628
 30
0.0
 10
51.68508805272303
 20
144.3390795502744
 30
0.0
 10
51.05809138251306
 20
135.5216444118687
 30
0.0
 10
50.61973215109362
 20
126.9411393661994
 30
0.0
 10
50.5433883769954
 20
121.0976658381794
 30
0.0
 10
50.50698130254147
 20
118.3110106286698
 30
0.0
  0
ARC
  5
F0
330
EB
100
AcDbEntity
  8
$DDT_AUDIT_GENERATED_(77)
  6
Continuous
 62
     7
100
AcDbCircle
 10
2228.2604888902
 20
194.3999716331
 30
0.0
 40
2172.382515402731
100
AcDbArc
 50
178.2644865021
 51
178.5513796474
  0
SPLINE
  5
F1
330
EB
100
AcDbEntity
  8
$DDT_AUDIT_GENERATED_(77)
  6
Continuous
 62
     7
100
AcDbSpline
210
0.0
220
0.0
230
1.0
 70
     8
 71
     3
 72
    25
 73
    21
 74
     0
 42
0.0000000000760756
 43
0.0000000001
 40
0.0
 40
0.0
 40
0.0
 40
0.0
 40
0.0324616860826804
 40
0.0667654565412339
 40
0.133486274126248
 40
0.1998350365107215
 40
0.2655510481118747
 40
0.3304150183128042
 40
0.3942989383951794
 40
0.4571210653330265
 40
0.5188901272328843
 40
0.6395562973846401
 40
0.757525033654007
 40
0.8162341447642912
 40
0.8754857535631831
 40
0.9056273489416894
 40
0.9363473268582596
 40
0.9678193995025061
 40
0.9838418503357206
 40
1.0
 40
1.0
 40
1.0
 40
1.0
 10
48.00347059062174
 20
118.2794345378416
 30
0.0
 10
48.02747976750972
 20
119.7059033686257
 30
0.0
 10
48.07686055609321
 20
122.6397880253937
 30
0.0
 10
48.21065310054646
 20
128.5031043173433
 30
0.0
 10
48.42644891978642
 20
135.8505207776464
 30
0.0
 10
48.75175934311471
 20
144.5698975819053
 30
0.0
 10
49.12504889180909
 20
153.20234280548
 30
0.0
 10
49.52999379431044
 20
161.7233015403117
 30
0.0
 10
49.95166017452056
 20
170.1159072639898
 30
0.0
 10
50.3795881498779
 20
178.37315544118
 30
0.0
 10
50.94639033712091
 20
189.1205322019298
 30
0.0
 10
51.65358043560664
 20
202.2912329321585
 30
0.0
 10
52.39725487417973
 20
215.3447994831
 30
0.0
 10
53.12172021866947
 20
225.6875738111401
 30
0.0
 10
53.69914590918128
 20
232.1552677697072
 30
0.0
 10
54.32275469479966
 20
237.3518974483723
 30
0.0
 10
54.91549440946451
 20
241.3085195553835
 30
0.0
 10
55.54037072586122
 20
244.6173516566697
 30
0.0
 10
56.11655207010937
 20
247.289425210347
 30
0.0
 10
56.41993980000258
 20
248.6405029167781
 30
0.0
 10
56.57227333259769
 20
249.3188903756316
 30
0.0
  0
SPLINE
  5
F2
330
EB
100
AcDbEntity
  8
$DDT_AUDIT_GENERATED_(77)
  6
Continuous
 62
     7
100
AcDbSpline
210
0.0
220
0.0
230
1.0
 70
     8
 71
     3
 72
     8
 73
     4
 74
     0
 42
0.0000000077152291
 43
0.0000000001
 40
0.5065870906601
 40
0.5065870906601
 40
0.5065870906601
 40
0.5065870906601
 40
0.5092024381641445
 40
0.5092024381641445
 40
0.5092024381641445
 40
0.5092024381641445
 10
89.21820242888941
 20
117.6321497986939
 30
0.0
 10
89.21820620415807
 20
117.6310199095649
 30
0.0
 10
89.21820748848477
 20
117.6298899618259
 30
0.0
 10
89.21820628378066
 20
117.6287599556346
 30
0.0
  0
SPLINE
  5
F3
330
EB
100
AcDbEntity
  8
$DDT_AUDIT_GENERATED_(77)
  6
Continuous
 62
     7
100
AcDbSpline
210
0.0
220
0.0
230
1.0
 70
     8
 71
     3
 72
    25
 73
    21
 74
     0
 42
0.0000000000760756
 43
0.0000000001
 40
0.0
 40
0.0
 40
0.0
 40
0.0
 40
0.0161581469122858
 40
0.0321805950410043
 40
0.0636526641171803
 40
0.0943726407284948
 40
0.1245142360013988
 40
0.18376584575978
 40
0.2424749579491811
 40
0.3604436958080685
 40
0.481109867263381
 40
0.5428789298568195
 40
0.6057010575303748
 40
0.6695849783854346
 40
0.7344489493750092
 40
0.8001649617417227
 40
0.866513724824943
 40
0.9332345429989534
 40
0.9675379797434068
 40
1.0
 40
1.0
 40
1.0
 40
1.0
 10
80.375366911072
 20
249.3188903756306
 30
0.0
 10
80.52770018642268
 20
248.6405029077
 30
0.0
 10
80.83108741714585
 20
247.2894251817159
 30
0.0
 10
81.4072678811328
 20
244.6173514965737
 30
0.0
 10
82.03214359429242
 20
241.3085192873607
 30
0.0
 10
82.62488316416223
 20
237.351897156659
 30
0.0
 10
83.24849213614726
 20
232.155267358789
 30
0.0
 10
83.82591830338535
 20
225.6875732613074
 30
0.0
 10
84.55038435412955
 20
215.3447986357779
 30
0.0
 10
85.294059412556
 20
202.2912316281895
 30
0.0
 10
86.00124982131621
 20
189.1205304193341
 30
0.0
 10
86.56805214970217
 20
178.3731532866468
 30
0.0
 10
86.99598018971496
 20
170.1159048233223
 30
0.0
 10
87.41764660493192
 20
161.7232988102527
 30
0.0
 10
87.8225915180762
 20
153.2023397851472
 30
0.0
 10
88.19588106584476
 20
144.5698942717405
 30
0.0
 10
88.52119145063371
 20
135.8505171921578
 30
0.0
 10
88.73698686622541
 20
128.5031151472674
 30
0.0
 10
88.87077939651904
 20
122.6397987282293
 30
0.0
 10
88.92016025753983
 20
119.705913977601
 30
0.0
 10
88.94416971666878
 20
118.2794304263188
 30
0.0
  0
ARC
  5
F4
330
EB
100
AcDbEntity
  8
$DDT_AUDIT_GENERATED_(77)
  6
Continuous
 62
     7
100
AcDbCircle
 10
80.8540764272
 20
116.9185088136
 30
0.0
 40
8.113410246246001
100
AcDbArc
 50
291.2865319412
 51
329.3945559708
  0
ARC
  5
F5
330
EB
100
AcDbEntity
  8
$DDT_AUDIT_GENERATED_(77)
  6
Continuous
 62
     7
100
AcDbCircle
 10
68.4738244482
 20
146.8975086467
 30
0.0
 40
40.54681781645989
100
AcDbArc
 50
247.7916529395
 51
292.2083024361
  0
ARC
  5
F6
330
EB
100
AcDbEntity
  8
$DDT_AUDIT_GENERATED_(77)
  6
Continuous
 62
     7
100
AcDbCircle
 10
56.0943273409
 20
116.9190294763
 30
0.0
 40
8.114168940605241
100
AcDbArc
 50
210.5114289715
 51
248.7096131377
  0
ELLIPSE
  5
F7
330
EB
100
AcDbEntity
  8
$DDT_AUDIT_GENERATED_(77)
  6
Continuous
 62
     7
100
AcDbEllipse
 10
54.0544581586
 20
111.6757942479
 30
0.0
 11
0.9167530196176662
 21
2.325846921233665
 31
0.0
210
0.0
220
0.0
230
1.0
 40
0.0266712611
 41
3.031700079518711
 42
3.239199531558307
  0
SPLINE
  5
F8
330
EB
100
AcDbEntity
  8
$DDT_AUDIT_GENERATED_(77)
  6
Continuous
 62
     7
100
AcDbSpline
210
0.0
220
0.0
230
1.0
 70
     8
 71
     3
 72
    26
 73
    22
 74
     0
 42
0.0000000000663563
 43
0.0000000001
 40
0.0533688922361571
 40
0.0533688922361571
 40
0.0533688922361571
 40
0.0533688922361571
 40
0.0618827656596695
 40
0.092167322623554
 40
0.1216617431724038
 40
0.1505553877603117
 40
0.1790029449736592
 40
0.2231004831657737
 40
0.2667824249084498
 40
0.3103294844321131
 40
0.3688008865523831
 40
0.4277830812971853
 40
0.4875553507140269
 40
0.5483211668178135
 40
0.6114866865315243
 40
0.6758758975699442
 40
0.7414453554721792
 40
0.8080473964920803
 40
0.8754256471369432
 40
0.9432128662458585
 40
1.0
 40
1.0
 40
1.0
 40
1.0
 10
52.57167963168644
 20
260.19187770528
 30
0.0
 10
52.57335847230929
 20
259.7598031075517
 30
0.0
 10
52.57857771834708
 20
257.7889574594849
 30
0.0
 10
52.5693416884703
 20
254.3743313258689
 30
0.0
 10
52.52208176675699
 20
249.9115306518991
 30
0.0
 10
52.44602652064345
 20
245.5494324138955
 30
0.0
 10
52.32720913147158
 20
240.4522873275968
 30
0.0
 10
52.15388264677556
 20
234.6141116556643
 30
0.0
 10
51.91925973061866
 20
228.0190669438881
 30
0.0
 10
51.62700130353129
 20
220.7041217596674
 30
0.0
 10
51.27355492031714
 20
212.6231153590623
 30
0.0
 10
50.85878617024373
 20
203.7299624147449
 30
0.0
 10
50.42174936877178
 20
194.7235151801272
 30
0.0
 10
49.96588195937652
 20
185.5084432035862
 30
0.0
 10
49.50020460717887
 20
176.0628014150022
 30
0.0
 10
49.03909946199781
 20
166.3747068022762
 30
0.0
 10
48.60670631528465
 20
156.5179797541913
 30
0.0
 10
48.22899874896873
 20
146.4898997165503
 30
0.0
 10
47.94031917022244
 20
136.4203530037506
 30
0.0
 10
47.76351258434327
 20
126.578895349833
 30
0.0
 10
47.74513848821048
 20
120.7682763365357
 30
0.0
 10
47.73744655447355
 20
117.6319187531484
 30
0.0
  0
SPLINE
  5
F9
330
EB
100
AcDbEntity
  8
$DDT_AUDIT_GENERATED_(77)
  6
Continuous
 62
     7
100
AcDbSpline
210
0.0
220
0.0
230
1.0
 70
     8
 71
     3
 72
    26
 73
    22
 74
     0
 42
0.0000000000663585
 43
0.0000000001
 40
0.0
 40
0.0
 40
0.0
 40
0.0
 40
0.0566391347021001
 40
0.1242791588362752
 40
0.1915137957638892
 40
0.2579775985698889
 40
0.3234150344409945
 40
0.3865415040972107
 40
0.4484922866700981
 40
0.509313945857967
 40
0.5691334348288053
 40
0.6281505105954027
 40
0.6866401437063148
 40
0.7449756436467299
 40
0.8036836047507362
 40
0.8303575187649164
 40
0.857351567478116
 40
0.8847789609136941
 40
0.9127768670694817
 40
0.9415112741820256
 40
0.9466636641203198
 40
0.9466636641203198
 40
0.9466636641203198
 40
0.9466636641203198
 10
89.21021531643014
 20
117.6319133031451
 30
0.0
 10
89.20256421420811
 20
120.7600967646396
 30
0.0
 10
89.18427921920684
 20
126.5569793545134
 30
0.0
 10
89.00828085402472
 20
136.3759805560491
 30
0.0
 10
88.7207872577201
 20
146.4241178178091
 30
0.0
 10
88.34445405143701
 20
156.431425170055
 30
0.0
 10
87.91591853080484
 20
166.2112856725111
 30
0.0
 10
87.46166612794333
 20
175.7684845823872
 30
0.0
 10
87.00238675978312
 20
185.0926603126767
 30
0.0
 10
86.54908562093696
 20
194.2519151555813
 30
0.0
 10
86.11106285245552
 20
203.2652009440536
 30
0.0
 10
85.69498021169714
 20
212.1632840419158
 30
0.0
 10
85.30738460908438
 20
220.9890967266204
 30
0.0
 10
84.95764860831231
 20
229.8019875182414
 30
0.0
 10
84.71684788897791
 20
237.0201815313433
 30
0.0
 10
84.56669319201396
 20
242.6656001900802
 30
0.0
 10
84.47860172709761
 20
246.7407579368098
 30
0.0
 10
84.41309381502928
 20
250.8811512650839
 30
0.0
 10
84.37434864022674
 20
255.1169276742427
 30
0.0
 10
84.36957002560219
 20
258.2111102939604
 30
0.0
 10
84.37502302654113
 20
259.9303578086207
 30
0.0
 10
84.37604498600501
 20
260.1918723985973
 30
0.0
  0
ARC
  5
FA
330
EB
100
AcDbEntity
  8
$DDT_AUDIT_GENERATED_(77)
  6
Continuous
 62
     7
100
AcDbCircle
 10
57.0937761986
 20
117.6693118447
 30
0.0
 40
9.358602508870526
100
AcDbArc
 50
180.2133571845
 51
211.3630271303
  0
ARC
  5
FB
330
EB
100
AcDbEntity
  8
$DDT_AUDIT_GENERATED_(77)
  6
Continuous
 62
     7
100
AcDbCircle
 10
79.9184950019
 20
117.6580272196
 30
0.0
 40
9.293983739245578
100
AcDbArc
 50
328.406738621
 51
359.8186870944
  0
ARC
  5
FC
330
EB
100
AcDbEntity
  8
$DDT_AUDIT_GENERATED_(77)
  6
Continuous
 62
     7
100
AcDbCircle
 10
56.0033290428
 20
116.8117675062
 30
0.0
 40
7.972886095411782
100
AcDbArc
 50
211.1130075129
 51
212.3082376285
  0
LINE
  5
FD
330
EB
100
AcDbEntity
  8
$DDT_AUDIT_GENERATED_(77)
  6
Continuous
 62
     7
100
AcDbLine
 10
49.1087066773
 20
112.7880467785
 30
0.0
 11
49.1773442298
 21
112.6919563427
 31
0.0
  0
ARC
  5
FE
330
EB
100
AcDbEntity
  8
$DDT_AUDIT_GENERATED_(77)
  6
Continuous
 62
     7
100
AcDbCircle
 10
68.4738244947
 20
146.7793341684
 30
0.0
 40
40.42933416836905
100
AcDbArc
 50
247.7070126682
 51
292.2929426255
  0
ARC
  5
FF
330
EB
100
AcDbEntity
  8
$DDT_AUDIT_GENERATED_(77)
  6
Continuous
 62
     7
100
AcDbCircle
 10
80.7639748496
 20
117.0478966392
 30
0.0
 40
8.258482575750028
100
AcDbArc
 50
291.6466571251
 51
328.9446134931
  0
LINE
  5
100
330
EB
100
AcDbEntity
  8
$DDT_AUDIT_GENERATED_(97)
  6
Continuous
 62
     7
100
AcDbLine
 10
28.4738201218
 20
266.0526853758
 30
0.0
 11
108.4738201218
 21
266.0526853758
 31
0.0
  0
LINE
  5
101
330
EB
100
AcDbEntity
  8
$DDT_AUDIT_GENERATED_(97)
  6
Continuous
 62
     7
100
AcDbLine
 10
108.4738201218
 20
268.5331978087
 30
0.0
 11
28.4738201218
 21
268.5331978087
 31
0.0
  0
LINE
  5
102
330
EB
100
AcDbEntity
  8
$DDT_AUDIT_GENERATED_(97)
  6
Continuous
 62
     7
100
AcDbLine
 10
51.1873872294
 20
260.191862353
 30
0.0
 11
85.7602530143
 21
260.191862353
 31
0.0
  0
LINE
  5
103
330
EB
100
AcDbEntity
  8
$DDT_AUDIT_GENERATED_(97)
  6
Continuous
 62
     7
100
AcDbLine
 10
108.4738201218
 20
266.0526853758
 30
0.0
 11
108.4738201218
 21
268.5331978087
 31
0.0
  0
LINE
  5
104
330
EB
100
AcDbEntity
  8
$DDT_AUDIT_GENERATED_(97)
  6
Continuous
 62
     7
100
AcDbLine
 10
28.4738201218
 20
268.5331978087
 30
0.0
 11
28.4738201218
 21
266.0526853758
 31
0.0
  0
ARC
  5
105
330
EB
100
AcDbEntity
  8
$DDT_AUDIT_GENERATED_(97)
  6
Continuous
 62
     7
100
AcDbCircle
 10
118.0007766362
 20
611.8733704451
 30
0.0
 40
357.9719432272943
100
AcDbArc
 50
255.6411515199
 51
259.242991646
  0
ARC
  5
106
330
EB
100
AcDbEntity
  8
$DDT_AUDIT_GENERATED_(97)
  6
Continuous
 62
     7
100
AcDbCircle
 10
18.9468636074
 20
611.8733704451
 30
0.0
 40
357.9719432272943
100
AcDbArc
 50
280.757008354
 51
284.3588484801
  0
ARC
  5
107
330
EB
100
AcDbEntity
  8
$DDT_AUDIT_GENERATED_(97)
  6
Continuous
 62
     7
100
AcDbCircle
 10
107.4738201218
 20
266.0526853758
 30
0.0
 40
1.000000000000002
100
AcDbArc
 50
284.3588484801
 51
0.0
  0
ARC
  5
108
330
EB
100
AcDbEntity
  8
$DDT_AUDIT_GENERATED_(97)
  6
Continuous
 62
     7
100
AcDbCircle
 10
29.4738201218
 20
266.0526853758
 30
0.0
 40
1.000000000000001
100
AcDbArc
 50
180.0
 51
255.6411515199
  0
ENDBLK
  5
10A
330
EB
100
AcDbEntity
  8
0
100
AcDbBlockEnd
  0
ENDSEC
  0
SECTION
  2
ENTITIES
  0
INSERT
  5
5F
330
1F
100
AcDbEntity
  8
Default
100
AcDbBlockReference
  2
SEANNOT_GROUP
 10
0.0
 20
0.0
 30
0.0
  0
INSERT
  5
6A
330
1F
100
AcDbEntity
  8
Default
100
AcDbBlockReference
  2
SEANNOT_GROUP1
 10
0.0
 20
0.0
 30
0.0
  0
INSERT
  5
70
330
1F
100
AcDbEntity
  8
Default
100
AcDbBlockReference
  2
SEANNOT_GROUP2
 10
0.0
 20
0.0
 30
0.0
  0
INSERT
  5
76
330
1F
100
AcDbEntity
  8
Default
100
AcDbBlockReference
  2
SE
 10
0.0
 20
0.0
 30
0.0
  0
INSERT
  5
BB
330
1F
100
AcDbEntity
  8
Default
100
AcDbBlockReference
  2
SE1
 10
0.0
 20
0.0
 30
0.0
  0
INSERT
  5
EC
330
1F
100
AcDbEntity
  8
Default
100
AcDbBlockReference
  2
SE2
 10
0.0
 20
0.0
 30
0.0
  0
TEXT
  5
10C
330
1F
100
AcDbEntity
  8
Default
  6
Continuous
 62
     7
100
AcDbText
 10
5.9362635081
 20
53.4225120485
 30
0.0
 40
10.0
  1
Grohe AG^J
  7
SEACAD_seiso_ttf
 11
5.9362635081
 21
63.4225120485
 31
0.0
100
AcDbText
 73
     3
  0
TEXT
  5
10D
330
1F
100
AcDbEntity
  8
Default
  6
Continuous
 62
     7
100
AcDbText
 10
5.9362635081
 20
37.0588756849
 30
0.0
 40
10.0
  1
 
  7
SEACAD_seiso_ttf
 11
5.9362635081
 21
47.0588756849
 31
0.0
100
AcDbText
 73
     3
  0
TEXT
  5
10E
330
1F
100
AcDbEntity
  8
Default
  6
Continuous
 62
     7
100
AcDbText
 10
5.9362635081
 20
20.6952393213
 30
0.0
 40
10.0
  1
ecn: 
  7
SEACAD_seiso_ttf
 11
5.9362635081
 21
30.6952393213
 31
0.0
100
AcDbText
 73
     3
  0
TEXT
  5
10F
330
1F
100
AcDbEntity
  8
Default
  6
Continuous
 62
     7
100
AcDbText
 10
5.9362635081
 20
4.3316029576
 30
0.0
 40
10.0
  1
unit: mm
  7
SEACAD_seiso_ttf
 11
5.9362635081
 21
14.3316029576
 31
0.0
100
AcDbText
 73
     3
  0
LINE
  5
110
330
1F
100
AcDbEntity
  8
Default
  6
Continuous
 62
     7
100
AcDbLine
 10
0.0
 20
0.0
 30
0.0
 11
100.0
 21
0.0
 31
0.0
  0
LINE
  5
111
330
1F
100
AcDbEntity
  8
Default
  6
Continuous
 62
     7
100
AcDbLine
 10
0.0
 20
0.0
 30
0.0
 11
0.0
 21
100.0
 31
0.0
  0
TEXT
  5
112
330
1F
100
AcDbEntity
  8
Default
  6
Continuous
 62
     7
100
AcDbText
 10
24.3923665681
 20
-18.2375342018
 30
0.0
 40
10.0
  1
100 mm
  7
SEACAD_seiso_ttf
 11
24.3923665681
 21
-8.2375342018
 31
0.0
100
AcDbText
 73
     3
  0
TEXT
  5
113
330
1F
100
AcDbEntity
  8
Default
  6
Continuous
 62
     7
100
AcDbText
 10
-7.6150308803
 20
24.6231930421
 30
0.0
 40
10.0
  1
100 mm
 50
90.0
  7
SEACAD_seiso_ttf
 11
-17.6150308803
 21
24.6231930421
 31
0.0
100
AcDbText
 73
     3
  0
TEXT
  5
114
330
1F
100
AcDbEntity
  8
Default
  6
Continuous
 62
     7
100
AcDbText
 10
28.4878128572
 20
20.0907663715
 30
0.0
 40
10.0
  1
218394
  7
SEACAD_seiso_ttf
 11
28.4878128572
 21
30.0907663715
 31
0.0
100
AcDbText
 73
     3
  0
TEXT
  5
115
330
1F
100
AcDbEntity
  8
Default
  6
Continuous
 62
     7
100
AcDbText
 10
5.9012241913
 20
36.7242780188
 30
0.0
 40
10.0
  1
13252000
  7
SEACAD_seiso_ttf
 11
5.9012241913
 21
46.7242780188
 31
0.0
100
AcDbText
 73
     3
  0
ENDSEC
  0
SECTION
  2
OBJECTS
  0
DICTIONARY
  5
C
330
0
100
AcDbDictionary
281
     1
  3
ACAD_GROUP
350
D
  3
ACAD_LAYOUT
350
1A
  3
ACAD_MLEADERSTYLE
350
119
  3
ACAD_MLINESTYLE
350
17
  3
ACAD_PLOTSETTINGS
350
19
  3
ACAD_PLOTSTYLENAME
350
E
  3
ACAD_SCALELIST
350
3B
  3
ACAD_TABLESTYLE
350
118
  3
ACAD_VISUALSTYLE
350
2A
  3
AcDbVariableDictionary
350
116
  0
DICTIONARY
  5
D
102
{ACAD_REACTORS
330
C
102
}
330
C
100
AcDbDictionary
281
     1
  0
DICTIONARY
  5
1A
102
{ACAD_REACTORS
330
C
102
}
330
C
100
AcDbDictionary
281
     1
  3
Layout1
350
1E
  3
Model
350
22
  0
DICTIONARY
  5
119
102
{ACAD_REACTORS
330
C
102
}
330
C
100
AcDbDictionary
281
     1
  0
DICTIONARY
  5
17
102
{ACAD_REACTORS
330
C
102
}
330
C
100
AcDbDictionary
281
     1
  3
Standard
350
18
  0
DICTIONARY
  5
19
102
{ACAD_REACTORS
330
C
102
}
330
C
100
AcDbDictionary
281
     1
  0
ACDBDICTIONARYWDFLT
  5
E
102
{ACAD_REACTORS
330
C
102
}
330
C
100
AcDbDictionary
281
     1
  3
Normal
350
F
100
AcDbDictionaryWithDefault
340
F
  0
DICTIONARY
  5
3B
102
{ACAD_REACTORS
330
C
102
}
330
C
100
AcDbDictionary
281
     1
  3
A0
350
3C
  3
A1
350
3D
  3
A2
350
3E
  3
A3
350
3F
  3
A4
350
40
  3
A5
350
41
  3
A6
350
42
  3
A7
350
43
  3
A8
350
44
  3
A9
350
45
  3
B0
350
46
  3
B1
350
47
  3
B2
350
48
  3
B3
350
49
  3
B4
350
4A
  3
B5
350
4B
  3
B6
350
4C
  3
B7
350
4D
  3
B8
350
4E
  3
B9
350
4F
  3
C0
350
50
  3
C1
350
51
  3
C2
350
52
  3
C3
350
53
  3
C4
350
54
  3
C5
350
55
  3
C6
350
56
  3
C7
350
57
  3
C8
350
58
  3
C9
350
59
  3
D0
350
5A
  3
D1
350
5B
  3
D2
350
5C
  0
DICTIONARY
  5
118
102
{ACAD_REACTORS
330
C
102
}
330
C
100
AcDbDictionary
281
     1
  0
DICTIONARY
  5
2A
102
{ACAD_REACTORS
330
C
102
}
330
C
100
AcDbDictionary
281
     1
  3
2dWireframe
350
2F
  3
3D Hidden
350
31
  3
3dWireframe
350
30
  3
Basic
350
32
  3
Brighten
350
36
  3
ColorChange
350
3A
  3
Conceptual
350
34
  3
Dim
350
35
  3
Facepattern
350
39
  3
Flat
350
2B
  3
FlatWithEdges
350
2C
  3
Gouraud
350
2D
  3
GouraudWithEdges
350
2E
  3
Linepattern
350
38
  3
Realistic
350
33
  3
Thicken
350
37
  0
DICTIONARY
  5
116
102
{ACAD_REACTORS
330
C
102
}
330
C
100
AcDbDictionary
281
     1
  3
CANNOSCALE
350
117
  3
PSOLHEIGHT
350
11B
  3
PSOLWIDTH
350
11A
  0
LAYOUT
  5
1E
102
{ACAD_REACTORS
330
1A
102
}
330
1A
100
AcDbPlotSettings
  1

  2
none_device
  4

  6

 40
0.0
 41
0.0
 42
0.0
 43
0.0
 44
0.0
 45
0.0
 46
0.0
 47
0.0
 48
0.0
 49
0.0
140
0.0
141
0.0
142
1.0
143
1.0
 70
   688
 72
     0
 73
     0
 74
     5
  7

 75
    16
147
1.0
148
0.0
149
0.0
100
AcDbLayout
  1
Layout1
 70
     1
 71
     1
 10
0.0
 20
0.0
 11
1682.0
 21
2378.0
 12
0.0
 22
0.0
 32
0.0
 14
0.0
 24
0.0
 34
0.0
 15
1682.0
 25
2378.0
 35
0.0
146
0.0
 13
0.0
 23
0.0
 33
0.0
 16
1.0
 26
0.0
 36
0.0
 17
0.0
 27
1.0
 37
0.0
 76
     0
330
1B
  0
LAYOUT
  5
22
102
{ACAD_REACTORS
330
1A
102
}
330
1A
100
AcDbPlotSettings
  1

  2
none_device
  4

  6

 40
0.0
 41
0.0
 42
0.0
 43
0.0
 44
0.0
 45
0.0
 46
0.0
 47
0.0
 48
0.0
 49
0.0
140
0.0
141
0.0
142
1.0
143
1.0
 70
  1712
 72
     0
 73
     0
 74
     0
  7

 75
     0
147
1.0
148
0.0
149
0.0
100
AcDbLayout
  1
Model
 70
     1
 71
     0
 10
0.0
 20
0.0
 11
1682.0
 21
2378.0
 12
0.0
 22
0.0
 32
0.0
 14
0.0
 24
0.0
 34
0.0
 15
1682.0
 25
2378.0
 35
0.0
146
0.0
 13
0.0
 23
0.0
 33
0.0
 16
1.0
 26
0.0
 36
0.0
 17
0.0
 27
1.0
 37
0.0
 76
     0
330
1F
331
29
  0
MLINESTYLE
  5
18
102
{ACAD_REACTORS
330
17
102
}
330
17
100
AcDbMlineStyle
  2
Standard
 70
     0
  3

 62
   256
 51
90.0
 52
90.0
 71
     2
 49
0.5
 62
   256
  6
BYLAYER
 49
-0.5
 62
   256
  6
BYLAYER
  0
ACDBPLACEHOLDER
  5
F
102
{ACAD_REACTORS
330
E
102
}
330
E
  0
SCALE
  5
3C
102
{ACAD_REACTORS
330
3B
102
}
330
3B
100
AcDbScale
 70
     0
300
1:1
140
1.0
141
1.0
290
     1
  0
SCALE
  5
3D
102
{ACAD_REACTORS
330
3B
102
}
330
3B
100
AcDbScale
 70
     0
300
1:2
140
1.0
141
2.0
290
     0
  0
SCALE
  5
3E
102
{ACAD_REACTORS
330
3B
102
}
330
3B
100
AcDbScale
 70
     0
300
1:4
140
1.0
141
4.0
290
     0
  0
SCALE
  5
3F
102
{ACAD_REACTORS
330
3B
102
}
330
3B
100
AcDbScale
 70
     0
300
1:5
140
1.0
141
5.0
290
     0
  0
SCALE
  5
40
102
{ACAD_REACTORS
330
3B
102
}
330
3B
100
AcDbScale
 70
     0
300
1:8
140
1.0
141
8.0
290
     0
  0
SCALE
  5
41
102
{ACAD_REACTORS
330
3B
102
}
330
3B
100
AcDbScale
 70
     0
300
1:10
140
1.0
141
10.0
290
     0
  0
SCALE
  5
42
102
{ACAD_REACTORS
330
3B
102
}
330
3B
100
AcDbScale
 70
     0
300
1:16
140
1.0
141
16.0
290
     0
  0
SCALE
  5
43
102
{ACAD_REACTORS
330
3B
102
}
330
3B
100
AcDbScale
 70
     0
300
1:20
140
1.0
141
20.0
290
     0
  0
SCALE
  5
44
102
{ACAD_REACTORS
330
3B
102
}
330
3B
100
AcDbScale
 70
     0
300
1:30
140
1.0
141
30.0
290
     0
  0
SCALE
  5
45
102
{ACAD_REACTORS
330
3B
102
}
330
3B
100
AcDbScale
 70
     0
300
1:40
140
1.0
141
40.0
290
     0
  0
SCALE
  5
46
102
{ACAD_REACTORS
330
3B
102
}
330
3B
100
AcDbScale
 70
     0
300
1:50
140
1.0
141
50.0
290
     0
  0
SCALE
  5
47
102
{ACAD_REACTORS
330
3B
102
}
330
3B
100
AcDbScale
 70
     0
300
1:100
140
1.0
141
100.0
290
     0
  0
SCALE
  5
48
102
{ACAD_REACTORS
330
3B
102
}
330
3B
100
AcDbScale
 70
     0
300
2:1
140
2.0
141
1.0
290
     0
  0
SCALE
  5
49
102
{ACAD_REACTORS
330
3B
102
}
330
3B
100
AcDbScale
 70
     0
300
4:1
140
4.0
141
1.0
290
     0
  0
SCALE
  5
4A
102
{ACAD_REACTORS
330
3B
102
}
330
3B
100
AcDbScale
 70
     0
300
8:1
140
8.0
141
1.0
290
     0
  0
SCALE
  5
4B
102
{ACAD_REACTORS
330
3B
102
}
330
3B
100
AcDbScale
 70
     0
300
10:1
140
10.0
141
1.0
290
     0
  0
SCALE
  5
4C
102
{ACAD_REACTORS
330
3B
102
}
330
3B
100
AcDbScale
 70
     0
300
100:1
140
100.0
141
1.0
290
     0
  0
SCALE
  5
4D
102
{ACAD_REACTORS
330
3B
102
}
330
3B
100
AcDbScale
 70
     0
300
1/128" = 1'-0"
140
0.0078125
141
12.0
290
     0
  0
SCALE
  5
4E
102
{ACAD_REACTORS
330
3B
102
}
330
3B
100
AcDbScale
 70
     0
300
1/64" = 1'-0"
140
0.015625
141
12.0
290
     0
  0
SCALE
  5
4F
102
{ACAD_REACTORS
330
3B
102
}
330
3B
100
AcDbScale
 70
     0
300
1/32" = 1'-0"
140
0.03125
141
12.0
290
     0
  0
SCALE
  5
50
102
{ACAD_REACTORS
330
3B
102
}
330
3B
100
AcDbScale
 70
     0
300
1/16" = 1'-0"
140
0.0625
141
12.0
290
     0
  0
SCALE
  5
51
102
{ACAD_REACTORS
330
3B
102
}
330
3B
100
AcDbScale
 70
     0
300
3/32" = 1'-0"
140
0.09375
141
12.0
290
     0
  0
SCALE
  5
52
102
{ACAD_REACTORS
330
3B
102
}
330
3B
100
AcDbScale
 70
     0
300
1/8" = 1'-0"
140
0.125
141
12.0
290
     0
  0
SCALE
  5
53
102
{ACAD_REACTORS
330
3B
102
}
330
3B
100
AcDbScale
 70
     0
300
3/16" = 1'-0"
140
0.1875
141
12.0
290
     0
  0
SCALE
  5
54
102
{ACAD_REACTORS
330
3B
102
}
330
3B
100
AcDbScale
 70
     0
300
1/4" = 1'-0"
140
0.25
141
12.0
290
     0
  0
SCALE
  5
55
102
{ACAD_REACTORS
330
3B
102
}
330
3B
100
AcDbScale
 70
     0
300
3/8" = 1'-0"
140
0.375
141
12.0
290
     0
  0
SCALE
  5
56
102
{ACAD_REACTORS
330
3B
102
}
330
3B
100
AcDbScale
 70
     0
300
1/2" = 1'-0"
140
0.5
141
12.0
290
     0
  0
SCALE
  5
57
102
{ACAD_REACTORS
330
3B
102
}
330
3B
100
AcDbScale
 70
     0
300
3/4" = 1'-0"
140
0.75
141
12.0
290
     0
  0
SCALE
  5
58
102
{ACAD_REACTORS
330
3B
102
}
330
3B
100
AcDbScale
 70
     0
300
1" = 1'-0"
140
1.0
141
12.0
290
     0
  0
SCALE
  5
59
102
{ACAD_REACTORS
330
3B
102
}
330
3B
100
AcDbScale
 70
     0
300
1-1/2" = 1'-0"
140
1.5
141
12.0
290
     0
  0
SCALE
  5
5A
102
{ACAD_REACTORS
330
3B
102
}
330
3B
100
AcDbScale
 70
     0
300
3" = 1'-0"
140
3.0
141
12.0
290
     0
  0
SCALE
  5
5B
102
{ACAD_REACTORS
330
3B
102
}
330
3B
100
AcDbScale
 70
     0
300
6" = 1'-0"
140
6.0
141
12.0
290
     0
  0
SCALE
  5
5C
102
{ACAD_REACTORS
330
3B
102
}
330
3B
100
AcDbScale
 70
     0
300
1'-0" = 1'-0"
140
12.0
141
12.0
290
     0
  0
VISUALSTYLE
  5
2F
102
{ACAD_REACTORS
330
2A
102
}
330
2A
100
AcDbVisualStyle
  2
2dWireframe
 70
     4
 71
     0
 72
     2
 73
     0
 90
        0
 40
-0.6
 41
-30.0
 62
     5
 63
     7
 74
     1
 91
        4
 64
     7
 65
   257
 75
     1
175
     1
 42
1.0
 92
        0
 66
   257
 43
1.0
 76
     1
 77
     6
 78
     2
 67
     7
 79
     5
170
     0
171
     0
290
     0
174
     0
 93
        1
 44
0.0
173
     0
291
     0
 45
0.0
1001
ACAD
1000
AcDbSavedByObjectVersion
1070
     0
  0
VISUALSTYLE
  5
31
102
{ACAD_REACTORS
330
2A
102
}
330
2A
100
AcDbVisualStyle
  2
3D Hidden
 70
     6
 71
     1
 72
     2
 73
     2
 90
        0
 40
-0.6
 41
-30.0
 62
     5
 63
     7
 74
     2
 91
        2
 64
     7
 65
   257
 75
     2
175
     1
 42
40.0
 92
        0
 66
   257
 43
1.0
 76
     1
 77
     6
 78
     2
 67
     7
 79
     3
170
     0
171
     0
290
     0
174
     0
 93
        1
 44
0.0
173
     0
291
     0
 45
0.0
1001
ACAD
1000
AcDbSavedByObjectVersion
1070
     0
  0
VISUALSTYLE
  5
30
102
{ACAD_REACTORS
330
2A
102
}
330
2A
100
AcDbVisualStyle
  2
3dWireframe
 70
     5
 71
     0
 72
     2
 73
     0
 90
        0
 40
-0.6
 41
-30.0
 62
     5
 63
     7
 74
     1
 91
        4
 64
     7
 65
   257
 75
     1
175
     1
 42
1.0
 92
        0
 66
   257
 43
1.0
 76
     1
 77
     6
 78
     2
 67
     7
 79
     5
170
     0
171
     0
290
     0
174
     0
 93
        1
 44
0.0
173
     0
291
     0
 45
0.0
1001
ACAD
1000
AcDbSavedByObjectVersion
1070
     0
  0
VISUALSTYLE
  5
32
102
{ACAD_REACTORS
330
2A
102
}
330
2A
100
AcDbVisualStyle
  2
Basic
 70
     7
 71
     1
 72
     0
 73
     1
 90
        0
 40
-0.6
 41
-30.0
 62
     5
 63
     7
 74
     0
 91
        4
 64
     7
 65
   257
 75
     1
175
     1
 42
1.0
 92
        8
 66
     7
 43
1.0
 76
     1
 77
     6
 78
     2
 67
     7
 79
     5
170
     0
171
     0
290
     0
174
     0
 93
        1
 44
0.0
173
     0
291
     1
 45
0.0
1001
ACAD
1000
AcDbSavedByObjectVersion
1070
     0
  0
VISUALSTYLE
  5
36
102
{ACAD_REACTORS
330
2A
102
}
330
2A
100
AcDbVisualStyle
  2
Brighten
 70
    12
 71
     2
 72
     2
 73
     0
 90
        0
 40
-0.6
 41
-30.0
 62
     5
 63
     7
 74
     1
 91
        4
 64
     7
 65
   257
 75
     1
175
     1
 42
1.0
 92
        8
 66
     7
 43
1.0
 76
     1
 77
     6
 78
     2
 67
     7
 79
     5
170
     0
171
     0
290
     0
174
     0
 93
        1
 44
50.0
173
     0
291
     1
 45
0.0
1001
ACAD
1000
AcDbSavedByObjectVersion
1070
     0
  0
VISUALSTYLE
  5
3A
102
{ACAD_REACTORS
330
2A
102
}
330
2A
100
AcDbVisualStyle
  2
ColorChange
 70
    16
 71
     2
 72
     2
 73
     3
 90
        0
 40
-0.6
 41
-30.0
 62
     5
 63
     8
 74
     1
 91
        4
 64
     7
 65
   257
 75
     1
175
     1
 42
1.0
 92
        8
 66
     8
 43
1.0
 76
     1
 77
     6
 78
     2
 67
     7
 79
     5
170
     0
171
     0
290
     0
174
     0
 93
        1
 44
0.0
173
     0
291
     1
 45
0.0
1001
ACAD
1000
AcDbSavedByObjectVersion
1070
     0
  0
VISUALSTYLE
  5
34
102
{ACAD_REACTORS
330
2A
102
}
330
2A
100
AcDbVisualStyle
  2
Conceptual
 70
     9
 71
     3
 72
     2
 73
     0
 90
        0
 40
-0.6
 41
-30.0
 62
     5
 63
     7
 74
     2
 91
        2
 64
     7
 65
   257
 75
     1
175
     1
 42
40.0
 92
        8
 66
     7
 43
1.0
 76
     1
 77
     6
 78
     2
 67
     7
 79
     3
170
     0
171
     0
290
     0
174
     0
 93
        1
 44
0.0
173
     0
291
     0
 45
0.0
1001
ACAD
1000
AcDbSavedByObjectVersion
1070
     0
  0
VISUALSTYLE
  5
35
102
{ACAD_REACTORS
330
2A
102
}
330
2A
100
AcDbVisualStyle
  2
Dim
 70
    11
 71
     2
 72
     2
 73
     0
 90
        0
 40
-0.6
 41
-30.0
 62
     5
 63
     7
 74
     1
 91
        4
 64
     7
 65
   257
 75
     1
175
     1
 42
1.0
 92
        8
 66
     7
 43
1.0
 76
     1
 77
     6
 78
     2
 67
     7
 79
     5
170
     0
171
     0
290
     0
174
     0
 93
        1
 44
-50.0
173
     0
291
     1
 45
0.0
1001
ACAD
1000
AcDbSavedByObjectVersion
1070
     0
  0
VISUALSTYLE
  5
39
102
{ACAD_REACTORS
330
2A
102
}
330
2A
100
AcDbVisualStyle
  2
Facepattern
 70
    15
 71
     2
 72
     2
 73
     0
 90
        0
 40
-0.6
 41
-30.0
 62
     5
 63
     7
 74
     1
 91
        4
 64
     7
 65
   257
 75
     1
175
     1
 42
1.0
 92
        8
 66
     7
 43
1.0
 76
     1
 77
     6
 78
     2
 67
     7
 79
     5
170
     0
171
     0
290
     0
174
     0
 93
        1
 44
0.0
173
     0
291
     1
 45
0.0
1001
ACAD
1000
AcDbSavedByObjectVersion
1070
     0
  0
VISUALSTYLE
  5
2B
102
{ACAD_REACTORS
330
2A
102
}
330
2A
100
AcDbVisualStyle
  2
Flat
 70
     0
 71
     2
 72
     1
 73
     1
 90
        2
 40
-0.6
 41
30.0
 62
     5
 63
     7
 74
     0
 91
        4
 64
     7
 65
   257
 75
     1
175
     1
 42
1.0
 92
        8
 66
     7
 43
1.0
 76
     1
 77
     6
 78
     2
 67
     7
 79
     5
170
     0
171
     0
290
     0
174
     0
 93
       13
 44
0.0
173
     0
291
     1
 45
0.0
1001
ACAD
1000
AcDbSavedByObjectVersion
1070
     0
  0
VISUALSTYLE
  5
2C
102
{ACAD_REACTORS
330
2A
102
}
330
2A
100
AcDbVisualStyle
  2
FlatWithEdges
 70
     1
 71
     2
 72
     1
 73
     1
 90
        2
 40
-0.6
 41
30.0
 62
     5
 63
     7
 74
     1
 91
        4
 64
     7
 65
   257
 75
     1
175
     1
 42
1.0
 92
        0
 66
   257
 43
1.0
 76
     1
 77
     6
 78
     2
 67
     7
 79
     5
170
     0
171
     0
290
     0
174
     0
 93
       13
 44
0.0
173
     0
291
     1
 45
0.0
1001
ACAD
1000
AcDbSavedByObjectVersion
1070
     0
  0
VISUALSTYLE
  5
2D
102
{ACAD_REACTORS
330
2A
102
}
330
2A
100
AcDbVisualStyle
  2
Gouraud
 70
     2
 71
     2
 72
     2
 73
     1
 90
        2
 40
-0.6
 41
30.0
 62
     5
 63
     7
 74
     0
 91
        4
 64
     7
 65
   257
 75
     1
175
     1
 42
1.0
 92
        0
 66
     7
 43
1.0
 76
     1
 77
     6
 78
     2
 67
     7
 79
     5
170
     0
171
     0
290
     0
174
     0
 93
       13
 44
0.0
173
     0
291
     1
 45
0.0
1001
ACAD
1000
AcDbSavedByObjectVersion
1070
     0
  0
VISUALSTYLE
  5
2E
102
{ACAD_REACTORS
330
2A
102
}
330
2A
100
AcDbVisualStyle
  2
GouraudWithEdges
 70
     3
 71
     2
 72
     2
 73
     1
 90
        2
 40
-0.6
 41
30.0
 62
     5
 63
     7
 74
     1
 91
        4
 64
     7
 65
   257
 75
     1
175
     1
 42
1.0
 92
        0
 66
   257
 43
1.0
 76
     1
 77
     6
 78
     2
 67
     7
 79
     5
170
     0
171
     0
290
     0
174
     0
 93
       13
 44
0.0
173
     0
291
     1
 45
0.0
1001
ACAD
1000
AcDbSavedByObjectVersion
1070
     0
  0
VISUALSTYLE
  5
38
102
{ACAD_REACTORS
330
2A
102
}
330
2A
100
AcDbVisualStyle
  2
Linepattern
 70
    14
 71
     2
 72
     2
 73
     0
 90
        0
 40
-0.6
 41
-30.0
 62
     5
 63
     7
 74
     1
 91
        4
 64
     7
 65
   257
 75
     7
175
     7
 42
1.0
 92
        8
 66
     7
 43
1.0
 76
     1
 77
     6
 78
     2
 67
     7
 79
     5
170
     0
171
     0
290
     0
174
     0
 93
        1
 44
0.0
173
     0
291
     1
 45
0.0
1001
ACAD
1000
AcDbSavedByObjectVersion
1070
     0
  0
VISUALSTYLE
  5
33
102
{ACAD_REACTORS
330
2A
102
}
330
2A
100
AcDbVisualStyle
  2
Realistic
 70
     8
 71
     2
 72
     2
 73
     0
 90
        0
 40
-0.6
 41
-30.0
 62
     5
 63
     7
 74
     1
 91
        0
 64
     7
 65
   257
 75
     1
175
     1
 42
1.0
 92
        8
 66
     8
 43
1.0
 76
     1
 77
     6
 78
     2
 67
     7
 79
     5
170
     0
171
     0
290
     0
174
     0
 93
       13
 44
0.0
173
     0
291
     0
 45
0.0
1001
ACAD
1000
AcDbSavedByObjectVersion
1070
     0
  0
VISUALSTYLE
  5
37
102
{ACAD_REACTORS
330
2A
102
}
330
2A
100
AcDbVisualStyle
  2
Thicken
 70
    13
 71
     2
 72
     2
 73
     0
 90
        0
 40
-0.6
 41
-30.0
 62
     5
 63
     7
 74
     1
 91
        4
 64
     7
 65
   257
 75
     1
175
     1
 42
1.0
 92
       12
 66
     7
 43
1.0
 76
     1
 77
     6
 78
     2
 67
     7
 79
     5
170
     0
171
     0
290
     0
174
     0
 93
        1
 44
0.0
173
     0
291
     1
 45
0.0
1001
ACAD
1000
AcDbSavedByObjectVersion
1070
     0
  0
DICTIONARYVAR
  5
117
102
{ACAD_REACTORS
330
116
102
}
330
116
100
DictionaryVariables
280
     0
  1
1:1
  0
DICTIONARYVAR
  5
11B
102
{ACAD_REACTORS
330
116
102
}
330
116
100
DictionaryVariables
280
     0
  1
80.000000
  0
DICTIONARYVAR
  5
11A
102
{ACAD_REACTORS
330
116
102
}
330
116
100
DictionaryVariables
280
     0
  1
5.000000
  0
ENDSEC
  0
EOF
