  0
SECTION
  2
HEADER
  9
$ACADVER
  1
AC1015
  9
$ACADMAINTVER
 70
     6
  9
$DWGCODEPAGE
  3
ANSI_1252
  9
$INSBASE
 10
0.0
 20
0.0
 30
0.0
  9
$EXTMIN
 10
-60.63068
 20
108.77182
 30
0.0
  9
$EXTMAX
 10
610.229858
 20
527.908691
 30
0.0
  9
$LIMMIN
 10
-60.63068
 20
108.77182
  9
$LIMMAX
 10
610.229858
 20
527.908691
  9
$ORTHOMODE
 70
     0
  9
$REGENMODE
 70
     1
  9
$FILLMODE
 70
     1
  9
$QTEXTMODE
 70
     0
  9
$MIRRTEXT
 70
     1
  9
$LTSCALE
 40
1.0
  9
$ATTMODE
 70
     1
  9
$TEXTSIZE
 40
2.5
  9
$TRACEWID
 40
1.0
  9
$TEXTSTYLE
  7
Standard
  9
$CLAYER
  8
0
  9
$CELTYPE
  6
ByLayer
  9
$CECOLOR
 62
   256
  9
$CELTSCALE
 40
1.0
  9
$DISPSILH
 70
     0
  9
$DIMSCALE
 40
1.0
  9
$DIMASZ
 40
2.5
  9
$DIMEXO
 40
0.625
  9
$DIMDLI
 40
3.75
  9
$DIMRND
 40
0.0
  9
$DIMDLE
 40
0.0
  9
$DIMEXE
 40
1.25
  9
$DIMTP
 40
0.0
  9
$DIMTM
 40
0.0
  9
$DIMTXT
 40
2.5
  9
$DIMCEN
 40
2.5
  9
$DIMTSZ
 40
0.0
  9
$DIMTOL
 70
     0
  9
$DIMLIM
 70
     0
  9
$DIMTIH
 70
     0
  9
$DIMTOH
 70
     0
  9
$DIMSE1
 70
     0
  9
$DIMSE2
 70
     0
  9
$DIMTAD
 70
     1
  9
$DIMZIN
 70
     8
  9
$DIMBLK
  1

  9
$DIMASO
 70
     1
  9
$DIMSHO
 70
     1
  9
$DIMPOST
  1

  9
$DIMAPOST
  1

  9
$DIMALT
 70
     0
  9
$DIMALTD
 70
     3
  9
$DIMALTF
 40
0.03937
  9
$DIMLFAC
 40
1.0
  9
$DIMTOFL
 70
     1
  9
$DIMTVP
 40
0.0
  9
$DIMTIX
 70
     0
  9
$DIMSOXD
 70
     0
  9
$DIMSAH
 70
     0
  9
$DIMBLK1
  1

  9
$DIMBLK2
  1

  9
$DIMSTYLE
  2
ISO-25
  9
$DIMCLRD
 70
     0
  9
$DIMCLRE
 70
     0
  9
$DIMCLRT
 70
     0
  9
$DIMTFAC
 40
1.0
  9
$DIMGAP
 40
0.625
  9
$DIMJUST
 70
     0
  9
$DIMSD1
 70
     0
  9
$DIMSD2
 70
     0
  9
$DIMTOLJ
 70
     0
  9
$DIMTZIN
 70
     8
  9
$DIMALTZ
 70
     0
  9
$DIMALTTZ
 70
     0
  9
$DIMUPT
 70
     0
  9
$DIMDEC
 70
     2
  9
$DIMTDEC
 70
     2
  9
$DIMALTU
 70
     2
  9
$DIMALTTD
 70
     3
  9
$DIMTXSTY
  7
Standard
  9
$DIMAUNIT
 70
     0
  9
$DIMADEC
 70
     0
  9
$DIMALTRND
 40
0.0
  9
$DIMAZIN
 70
     0
  9
$DIMDSEP
 70
    44
  9
$DIMATFIT
 70
     3
  9
$DIMFRAC
 70
     0
  9
$DIMLDRBLK
  1

  9
$DIMLUNIT
 70
     2
  9
$DIMLWD
 70
    -2
  9
$DIMLWE
 70
    -2
  9
$DIMTMOVE
 70
     0
  9
$LUNITS
 70
     2
  9
$LUPREC
 70
     4
  9
$SKETCHINC
 40
1.0
  9
$FILLETRAD
 40
10.0
  9
$AUNITS
 70
     0
  9
$AUPREC
 70
     0
  9
$MENU
  1
.
  9
$ELEVATION
 40
0.0
  9
$PELEVATION
 40
0.0
  9
$THICKNESS
 40
0.0
  9
$LIMCHECK
 70
     0
  9
$CHAMFERA
 40
10.0
  9
$CHAMFERB
 40
10.0
  9
$CHAMFERC
 40
20.0
  9
$CHAMFERD
 40
0.0
  9
$SKPOLY
 70
     0
  9
$TDCREATE
 40
2455903.628848993
  9
$TDUCREATE
 40
2455903.587182326
  9
$TDUPDATE
 40
2455903.628849005
  9
$TDUUPDATE
 40
2455903.587182338
  9
$TDINDWG
 40
0.0000000116
  9
$TDUSRTIMER
 40
0.0000000116
  9
$USRTIMER
 70
     1
  9
$ANGBASE
 50
0.0
  9
$ANGDIR
 70
     0
  9
$PDMODE
 70
     0
  9
$PDSIZE
 40
0.0
  9
$PLINEWID
 40
0.0
  9
$SPLFRAME
 70
     0
  9
$SPLINETYPE
 70
     6
  9
$SPLINESEGS
 70
     8
  9
$HANDSEED
  5
170
  9
$SURFTAB1
 70
     6
  9
$SURFTAB2
 70
     6
  9
$SURFTYPE
 70
     6
  9
$SURFU
 70
     6
  9
$SURFV
 70
     6
  9
$UCSBASE
  2

  9
$UCSNAME
  2

  9
$UCSORG
 10
0.0
 20
0.0
 30
0.0
  9
$UCSXDIR
 10
1.0
 20
0.0
 30
0.0
  9
$UCSYDIR
 10
0.0
 20
1.0
 30
0.0
  9
$UCSORTHOREF
  2

  9
$UCSORTHOVIEW
 70
     0
  9
$UCSORGTOP
 10
0.0
 20
0.0
 30
0.0
  9
$UCSORGBOTTOM
 10
0.0
 20
0.0
 30
0.0
  9
$UCSORGLEFT
 10
0.0
 20
0.0
 30
0.0
  9
$UCSORGRIGHT
 10
0.0
 20
0.0
 30
0.0
  9
$UCSORGFRONT
 10
0.0
 20
0.0
 30
0.0
  9
$UCSORGBACK
 10
0.0
 20
0.0
 30
0.0
  9
$PUCSBASE
  2

  9
$PUCSNAME
  2

  9
$PUCSORG
 10
0.0
 20
0.0
 30
0.0
  9
$PUCSXDIR
 10
1.0
 20
0.0
 30
0.0
  9
$PUCSYDIR
 10
0.0
 20
1.0
 30
0.0
  9
$PUCSORTHOREF
  2

  9
$PUCSORTHOVIEW
 70
     0
  9
$PUCSORGTOP
 10
0.0
 20
0.0
 30
0.0
  9
$PUCSORGBOTTOM
 10
0.0
 20
0.0
 30
0.0
  9
$PUCSORGLEFT
 10
0.0
 20
0.0
 30
0.0
  9
$PUCSORGRIGHT
 10
0.0
 20
0.0
 30
0.0
  9
$PUCSORGFRONT
 10
0.0
 20
0.0
 30
0.0
  9
$PUCSORGBACK
 10
0.0
 20
0.0
 30
0.0
  9
$USERI1
 70
     0
  9
$USERI2
 70
     0
  9
$USERI3
 70
     0
  9
$USERI4
 70
     0
  9
$USERI5
 70
     0
  9
$USERR1
 40
0.0
  9
$USERR2
 40
0.0
  9
$USERR3
 40
0.0
  9
$USERR4
 40
0.0
  9
$USERR5
 40
0.0
  9
$WORLDVIEW
 70
     1
  9
$SHADEDGE
 70
     3
  9
$SHADEDIF
 70
    70
  9
$TILEMODE
 70
     1
  9
$MAXACTVP
 70
    64
  9
$PINSBASE
 10
0.0
 20
0.0
 30
0.0
  9
$PLIMCHECK
 70
     0
  9
$PEXTMIN
 10
1.000000E+20
 20
1.000000E+20
 30
1.000000E+20
  9
$PEXTMAX
 10
-1.000000E+20
 20
-1.000000E+20
 30
-1.000000E+20
  9
$PLIMMIN
 10
0.0
 20
0.0
  9
$PLIMMAX
 10
420.0
 20
297.0
  9
$UNITMODE
 70
     0
  9
$VISRETAIN
 70
     1
  9
$PLINEGEN
 70
     0
  9
$PSLTSCALE
 70
     1
  9
$TREEDEPTH
 70
  3020
  9
$CMLSTYLE
  2
Standard
  9
$CMLJUST
 70
     0
  9
$CMLSCALE
 40
20.0
  9
$PROXYGRAPHICS
 70
     1
  9
$MEASUREMENT
 70
     1
  9
$CELWEIGHT
370
    -1
  9
$ENDCAPS
280
     0
  9
$JOINSTYLE
280
     0
  9
$LWDISPLAY
290
     0
  9
$INSUNITS
 70
     4
  9
$HYPERLINKBASE
  1

  9
$STYLESHEET
  1

  9
$XEDIT
290
     1
  9
$CEPSNTYPE
380
     0
  9
$PSTYLEMODE
290
     1
  9
$FINGERPRINTGUID
  2
{5670E78B-CC6B-4B13-96E1-1852FBA8B518}
  9
$VERSIONGUID
  2
{FAEB1C32-E019-11D5-929B-00C0DF256EC4}
  9
$EXTNAMES
290
     1
  9
$PSVPSCALE
 40
0.0
  9
$OLESTARTUP
290
     0
  0
ENDSEC
  0
SECTION
  2
CLASSES
  0
CLASS
  1
ACDBDICTIONARYWDFLT
  2
AcDbDictionaryWithDefault
  3
ObjectDBX Classes
 90
        0
280
     0
281
     0
  0
CLASS
  1
VISUALSTYLE
  2
AcDbVisualStyle
  3
ObjectDBX Classes
 90
     4095
280
     0
281
     0
  0
CLASS
  1
DICTIONARYVAR
  2
AcDbDictionaryVar
  3
ObjectDBX Classes
 90
        0
280
     0
281
     0
  0
CLASS
  1
ACDBPLACEHOLDER
  2
AcDbPlaceHolder
  3
ObjectDBX Classes
 90
        0
280
     0
281
     0
  0
CLASS
  1
LAYOUT
  2
AcDbLayout
  3
ObjectDBX Classes
 90
        0
280
     0
281
     0
  0
ENDSEC
  0
SECTION
  2
TABLES
  0
TABLE
  2
VPORT
  5
8
330
0
100
AcDbSymbolTable
 70
     1
  0
VPORT
  5
29
330
8
100
AcDbSymbolTableRecord
100
AcDbViewportTableRecord
  2
*Active
 70
     0
 10
0.0
 20
0.0
 11
1.0
 21
1.0
 12
344.186916
 22
148.5
 13
0.0
 23
0.0
 14
10.0
 24
10.0
 15
10.0
 25
10.0
 16
0.0
 26
0.0
 36
1.0
 17
0.0
 27
0.0
 37
0.0
 40
297.0
 41
1.972973
 42
50.0
 43
0.0
 44
0.0
 50
0.0
 51
0.0
 71
     0
 72
   100
 73
     1
 74
     3
 75
     0
 76
     0
 77
     0
 78
     0
281
     0
 65
     1
110
0.0
120
0.0
130
0.0
111
1.0
121
0.0
131
0.0
112
0.0
122
1.0
132
0.0
 79
     0
146
0.0
  0
ENDTAB
  0
TABLE
  2
LTYPE
  5
5
330
0
100
AcDbSymbolTable
 70
     1
  0
LTYPE
  5
14
330
5
100
AcDbSymbolTableRecord
100
AcDbLinetypeTableRecord
  2
ByBlock
 70
     0
  3

 72
    65
 73
     0
 40
0.0
  0
LTYPE
  5
15
330
5
100
AcDbSymbolTableRecord
100
AcDbLinetypeTableRecord
  2
ByLayer
 70
     0
  3

 72
    65
 73
     0
 40
0.0
  0
LTYPE
  5
16
330
5
100
AcDbSymbolTableRecord
100
AcDbLinetypeTableRecord
  2
Continuous
 70
     0
  3
Solid line
 72
    65
 73
     0
 40
0.0
  0
ENDTAB
  0
TABLE
  2
LAYER
  5
2
330
0
100
AcDbSymbolTable
 70
     1
  0
LAYER
  5
10
330
2
100
AcDbSymbolTableRecord
100
AcDbLayerTableRecord
  2
0
 70
     0
 62
   106
  6
Continuous
370
     0
390
F
  0
ENDTAB
  0
TABLE
  2
STYLE
  5
3
330
0
100
AcDbSymbolTable
 70
     4
  0
STYLE
  5
11
330
3
100
AcDbSymbolTableRecord
100
AcDbTextStyleTableRecord
  2
Standard
 70
     0
 40
0.0
 41
1.0
 50
0.0
 71
     0
 42
2.5
  3
txt
  4

  0
STYLE
  5
3B
330
3
100
AcDbSymbolTableRecord
100
AcDbTextStyleTableRecord
  2
Default
 70
     0
 40
0.0
 41
1.0
 50
0.0
 71
     0
 42
0.2
  3

  4

1001
ACAD
1000
txt
1071
        0
  0
STYLE
  5
3C
330
3
100
AcDbSymbolTableRecord
100
AcDbTextStyleTableRecord
  2
ISO
 70
     0
 40
0.0
 41
1.0
 50
0.0
 71
     0
 42
0.2
  3

  4

1001
ACAD
1000
txt
1071
        0
  0
STYLE
  5
3D
330
3
100
AcDbSymbolTableRecord
100
AcDbTextStyleTableRecord
  2
GIANLU
 70
     0
 40
0.0
 41
1.0
 50
0.0
 71
     0
 42
0.2
  3

  4

1001
ACAD
1000
Arial
1071
        0
  0
ENDTAB
  0
TABLE
  2
VIEW
  5
6
330
0
100
AcDbSymbolTable
 70
     0
  0
ENDTAB
  0
TABLE
  2
UCS
  5
7
330
0
100
AcDbSymbolTable
 70
     0
  0
ENDTAB
  0
TABLE
  2
APPID
  5
9
330
0
100
AcDbSymbolTable
 70
     1
  0
APPID
  5
12
330
9
100
AcDbSymbolTableRecord
100
AcDbRegAppTableRecord
  2
ACAD
 70
     0
  0
ENDTAB
  0
TABLE
  2
DIMSTYLE
  5
A
330
0
100
AcDbSymbolTable
 70
     4
100
AcDbDimStyleTable
  0
DIMSTYLE
105
27
330
A
100
AcDbSymbolTableRecord
100
AcDbDimStyleTableRecord
  2
ISO-25
 70
     0
 41
2.5
 42
0.625
 43
3.75
 44
1.25
 73
     0
 74
     0
 77
     1
 78
     8
140
2.5
141
2.5
143
0.03937
147
0.625
171
     3
172
     1
271
     2
272
     2
274
     3
278
    44
283
     0
284
     8
340
11
  0
DIMSTYLE
105
3E
330
A
100
AcDbSymbolTableRecord
100
AcDbDimStyleTableRecord
  2
Default
 70
     0
  3
<>
 41
4.375
 42
1.05
 44
2.1
 73
     0
 74
     0
 77
     1
 78
     8
140
3.5
146
0.4
147
1.75
178
     3
271
     2
272
     3
284
     8
340
3B
341
3F
342
3F
  0
DIMSTYLE
105
46
330
A
100
AcDbSymbolTableRecord
100
AcDbDimStyleTableRecord
  2
ISO
 70
     0
  3
<>
 41
4.375
 42
1.05
 44
2.1
 73
     0
 74
     0
 77
     1
 78
     8
140
3.5
146
0.4
147
1.75
178
     3
271
     2
272
     3
284
     8
340
3C
341
3F
342
3F
  0
DIMSTYLE
105
47
330
A
100
AcDbSymbolTableRecord
100
AcDbDimStyleTableRecord
  2
zucchetti_unico
 70
     0
  3
<>
 41
3.0
 42
0.9
 44
1.8
 73
     0
 74
     0
 77
     1
 78
     8
140
3.0
146
0.6
147
1.5
176
   104
177
     3
178
     3
271
     2
272
     2
284
     8
340
3D
  0
ENDTAB
  0
TABLE
  2
BLOCK_RECORD
  5
1
330
0
100
AcDbSymbolTable
 70
     6
  0
BLOCK_RECORD
  5
1F
330
1
100
AcDbSymbolTableRecord
100
AcDbBlockTableRecord
  2
*Model_Space
340
22
  0
BLOCK_RECORD
  5
1B
330
1
100
AcDbSymbolTableRecord
100
AcDbBlockTableRecord
  2
*Paper_Space
340
1E
  0
BLOCK_RECORD
  5
23
330
1
100
AcDbSymbolTableRecord
100
AcDbBlockTableRecord
  2
*Paper_Space0
340
26
  0
BLOCK_RECORD
  5
3F
330
1
100
AcDbSymbolTableRecord
100
AcDbBlockTableRecord
  2
_CLOSED
340
0
  0
BLOCK_RECORD
  5
48
330
1
100
AcDbSymbolTableRecord
100
AcDbBlockTableRecord
  2
a
340
0
102
{BLKREFS
331
A3
102
}
  0
BLOCK_RECORD
  5
A4
330
1
100
AcDbSymbolTableRecord
100
AcDbBlockTableRecord
  2
b
340
0
102
{BLKREFS
331
DC
102
}
  0
BLOCK_RECORD
  5
DD
330
1
100
AcDbSymbolTableRecord
100
AcDbBlockTableRecord
  2
c
340
0
102
{BLKREFS
331
123
102
}
  0
BLOCK_RECORD
  5
124
330
1
100
AcDbSymbolTableRecord
100
AcDbBlockTableRecord
  2
e
340
0
102
{BLKREFS
331
16A
102
}
  0
ENDTAB
  0
ENDSEC
  0
SECTION
  2
BLOCKS
  0
BLOCK
  5
20
330
1F
100
AcDbEntity
  8
0
100
AcDbBlockBegin
  2
*Model_Space
 70
     0
 10
0.0
 20
0.0
 30
0.0
  3
*Model_Space
  1

  0
ENDBLK
  5
21
330
1F
100
AcDbEntity
  8
0
100
AcDbBlockEnd
  0
BLOCK
  5
1C
330
1B
100
AcDbEntity
 67
     1
  8
0
100
AcDbBlockBegin
  2
*Paper_Space
 70
     0
 10
0.0
 20
0.0
 30
0.0
  3
*Paper_Space
  1

  0
ENDBLK
  5
1D
330
1B
100
AcDbEntity
 67
     1
  8
0
100
AcDbBlockEnd
  0
BLOCK
  5
24
330
23
100
AcDbEntity
  8
0
100
AcDbBlockBegin
  2
*Paper_Space0
 70
     0
 10
0.0
 20
0.0
 30
0.0
  3
*Paper_Space0
  1

  0
ENDBLK
  5
25
330
23
100
AcDbEntity
  8
0
100
AcDbBlockEnd
  0
BLOCK
  5
40
330
3F
100
AcDbEntity
  8
0
100
AcDbBlockBegin
  2
_CLOSED
 70
     0
 10
0.0
 20
0.0
 30
0.0
  3
_CLOSED
  1

  0
LINE
  5
42
330
3F
100
AcDbEntity
  8
0
  6
ByBlock
 62
     0
370
    -2
100
AcDbLine
 10
-1.0
 20
0.166667
 30
0.0
 11
0.0
 21
0.0
 31
0.0
  0
LINE
  5
43
330
3F
100
AcDbEntity
  8
0
  6
ByBlock
 62
     0
370
    -2
100
AcDbLine
 10
0.0
 20
0.0
 30
0.0
 11
-1.0
 21
-0.166667
 31
0.0
  0
LINE
  5
44
330
3F
100
AcDbEntity
  8
0
  6
ByBlock
 62
     0
370
    -2
100
AcDbLine
 10
-1.0
 20
0.166667
 30
0.0
 11
-1.0
 21
-0.166667
 31
0.0
  0
LINE
  5
45
330
3F
100
AcDbEntity
  8
0
  6
ByBlock
 62
     0
370
    -2
100
AcDbLine
 10
0.0
 20
0.0
 30
0.0
 11
-1.0
 21
0.0
 31
0.0
  0
ENDBLK
  5
41
330
3F
100
AcDbEntity
  8
0
100
AcDbBlockEnd
  0
BLOCK
  5
A1
330
48
100
AcDbEntity
  8
0
100
AcDbBlockBegin
  2
a
 70
     0
 10
198.559906
 20
118.552574
 30
0.0
  3
a
  1

  0
LINE
  5
49
330
48
100
AcDbEntity
  8
0
  6
Continuous
 62
     0
370
     0
100
AcDbLine
 10
276.820142
 20
512.070843
 30
0.0
 11
276.820142
 21
492.689244
 31
0.0
  0
LINE
  5
4A
330
48
100
AcDbEntity
  8
0
  6
Continuous
 62
     0
370
    30
100
AcDbLine
 10
276.820142
 20
492.689244
 30
0.0
 11
277.820142
 21
492.689244
 31
0.0
  0
LINE
  5
4B
330
48
100
AcDbEntity
  8
0
  6
Continuous
 62
     0
370
    30
100
AcDbLine
 10
277.820142
 20
492.689244
 30
0.0
 11
277.820142
 21
512.070843
 31
0.0
  0
LINE
  5
4C
330
48
100
AcDbEntity
  8
0
  6
Continuous
 62
     0
370
     0
100
AcDbLine
 10
277.820142
 20
512.070843
 30
0.0
 11
276.820142
 21
512.070843
 31
0.0
  0
LINE
  5
4D
330
48
100
AcDbEntity
  8
0
  6
Continuous
 62
     0
370
     0
100
AcDbLine
 10
242.820142
 20
492.689244
 30
0.0
 11
242.820142
 21
512.070843
 31
0.0
  0
LINE
  5
4E
330
48
100
AcDbEntity
  8
0
  6
Continuous
 62
     0
370
     0
100
AcDbLine
 10
242.820142
 20
512.070843
 30
0.0
 11
241.820142
 21
512.070843
 31
0.0
  0
LINE
  5
4F
330
48
100
AcDbEntity
  8
0
  6
Continuous
 62
     0
370
    30
100
AcDbLine
 10
241.820142
 20
512.070843
 30
0.0
 11
241.820142
 21
492.689244
 31
0.0
  0
LINE
  5
50
330
48
100
AcDbEntity
  8
0
  6
Continuous
 62
     0
370
    30
100
AcDbLine
 10
241.820142
 20
492.689244
 30
0.0
 11
242.820142
 21
492.689244
 31
0.0
  0
LINE
  5
51
330
48
100
AcDbEntity
  8
0
  6
Continuous
 62
     0
370
    30
100
AcDbLine
 10
242.820142
 20
492.689244
 30
0.0
 11
276.820142
 21
492.689244
 31
0.0
  0
LINE
  5
52
330
48
100
AcDbEntity
  8
0
  6
Continuous
 62
     0
370
     0
100
AcDbLine
 10
276.820142
 20
512.070843
 30
0.0
 11
242.820142
 21
512.070843
 31
0.0
  0
LINE
  5
53
330
48
100
AcDbEntity
  8
0
  6
Continuous
 62
     0
370
     0
100
AcDbLine
 10
276.820142
 20
517.009285
 30
0.0
 11
276.820142
 21
512.070843
 31
0.0
  0
LINE
  5
54
330
48
100
AcDbEntity
  8
0
  6
Continuous
 62
     0
370
     0
100
AcDbLine
 10
242.820142
 20
517.009285
 30
0.0
 11
276.820142
 21
517.009285
 31
0.0
  0
LINE
  5
55
330
48
100
AcDbEntity
  8
0
  6
Continuous
 62
     0
370
     0
100
AcDbLine
 10
242.820142
 20
512.070843
 30
0.0
 11
242.820142
 21
517.009285
 31
0.0
  0
LINE
  5
56
330
48
100
AcDbEntity
  8
0
  6
Continuous
 62
     0
370
     0
100
AcDbLine
 10
276.820142
 20
517.009285
 30
0.0
 11
276.820142
 21
523.31991
 31
0.0
  0
LWPOLYLINE
  5
57
330
48
100
AcDbEntity
  8
0
  6
Continuous
 62
     0
370
     0
100
AcDbPolyline
 90
        9
 70
     0
 43
0.0
 10
276.820129
 20
523.319885
 10
276.745087
 20
523.440552
 10
276.516968
 20
523.558899
 10
276.144623
 20
523.667908
 10
275.653259
 20
523.761658
 10
275.055847
 20
523.838806
 10
274.360413
 20
523.8974
 10
273.604736
 20
523.933472
 10
272.820129
 20
523.945618
  0
LINE
  5
58
330
48
100
AcDbEntity
  8
0
  6
Continuous
 62
     0
370
     0
100
AcDbLine
 10
272.820142
 20
523.945648
 30
0.0
 11
246.820142
 21
523.945648
 31
0.0
  0
LWPOLYLINE
  5
59
330
48
100
AcDbEntity
  8
0
  6
Continuous
 62
     0
370
     0
100
AcDbPolyline
 90
        9
 70
     0
 43
0.0
 10
246.820145
 20
523.945618
 10
246.092697
 20
523.935242
 10
245.348587
 20
523.901794
 10
244.632446
 20
523.84375
 10
243.993027
 20
523.762573
 10
243.473404
 20
523.662598
 10
243.101959
 20
523.550598
 10
242.887451
 20
523.434204
 10
242.820145
 20
523.319885
  0
LINE
  5
5A
330
48
100
AcDbEntity
  8
0
  6
Continuous
 62
     0
370
     0
100
AcDbLine
 10
242.820142
 20
523.31991
 30
0.0
 11
242.820142
 21
517.009285
 31
0.0
  0
LINE
  5
5B
330
48
100
AcDbEntity
  8
0
  6
Continuous
 62
     0
370
     0
100
AcDbLine
 10
272.820142
 20
527.065126
 30
0.0
 11
272.820142
 21
525.089771
 31
0.0
  0
ELLIPSE
  5
5C
330
48
100
AcDbEntity
  8
0
  6
Continuous
 62
     0
370
     0
100
AcDbEllipse
 10
272.820142
 20
524.307598
 30
0.0
 11
-5.0
 21
1.427272083393603E-9
 31
0.0
210
0.0
220
0.0
230
-1.0
 40
0.156434
 41
1.570796324970134
 42
3.141592651765039
  0
LINE
  5
5D
330
48
100
AcDbEntity
  8
0
  6
Continuous
 62
     0
370
    30
100
AcDbLine
 10
277.820142
 20
524.307598
 30
0.0
 11
277.820142
 21
526.282954
 31
0.0
  0
ELLIPSE
  5
5E
330
48
100
AcDbEntity
  8
0
  6
Continuous
 62
     0
370
     0
100
AcDbEllipse
 10
272.820142
 20
526.282954
 30
0.0
 11
5.0
 21
-1.427272083393603E-9
 31
0.0
210
0.0
220
0.0
230
1.0
 40
0.156434
 41
0.0000000018247537
 42
1.570796328619659
  0
LINE
  5
5F
330
48
100
AcDbEntity
  8
0
  6
Continuous
 62
     0
370
     0
100
AcDbLine
 10
246.820142
 20
527.065126
 30
0.0
 11
246.820142
 21
525.089771
 31
0.0
  0
LINE
  5
60
330
48
100
AcDbEntity
  8
0
  6
Continuous
 62
     0
370
     0
100
AcDbLine
 10
246.820142
 20
525.089771
 30
0.0
 11
272.820142
 21
525.089771
 31
0.0
  0
LINE
  5
61
330
48
100
AcDbEntity
  8
0
  6
Continuous
 62
     0
370
     0
100
AcDbLine
 10
272.820142
 20
527.065126
 30
0.0
 11
246.820142
 21
527.065126
 31
0.0
  0
LINE
  5
62
330
48
100
AcDbEntity
  8
0
  6
Continuous
 62
     0
370
    30
100
AcDbLine
 10
241.820142
 20
526.282954
 30
0.0
 11
241.820142
 21
524.307598
 31
0.0
  0
ELLIPSE
  5
63
330
48
100
AcDbEntity
  8
0
  6
Continuous
 62
     0
370
     0
100
AcDbEllipse
 10
246.820142
 20
524.307598
 30
0.0
 11
-5.0
 21
1.427272013139723E-9
 31
0.0
210
0.0
220
0.0
230
-1.0
 40
0.156434
 41
6.283185305354833
 42
7.853981632149726
  0
ELLIPSE
  5
64
330
48
100
AcDbEntity
  8
0
  6
Continuous
 62
     0
370
     0
100
AcDbEllipse
 10
246.820142
 20
526.282954
 30
0.0
 11
5.0
 21
-1.427272013139723E-9
 31
0.0
210
0.0
220
0.0
230
1.0
 40
0.156434
 41
1.570796328619652
 42
3.141592655414547
  0
LINE
  5
65
330
48
100
AcDbEntity
  8
0
  6
Continuous
 62
     0
370
     0
100
AcDbLine
 10
246.820142
 20
527.065126
 30
0.0
 11
246.820142
 21
527.908571
 31
0.0
  0
LINE
  5
66
330
48
100
AcDbEntity
  8
0
  6
Continuous
 62
     0
370
     0
100
AcDbLine
 10
272.820142
 20
527.065126
 30
0.0
 11
272.820142
 21
527.908692
 31
0.0
  0
ARC
  5
67
330
48
100
AcDbEntity
  8
0
  6
Continuous
 62
     0
370
     0
100
AcDbCircle
 10
242.814024
 20
518.003168
 30
0.0
 40
0.9939013661287697
100
AcDbArc
 50
180.357081
 51
270.352685
  0
LINE
  5
68
330
48
100
AcDbEntity
  8
0
  6
Continuous
 62
     0
370
    30
100
AcDbLine
 10
241.820142
 20
517.996973
 30
0.0
 11
241.820142
 21
512.070843
 31
0.0
  0
ELLIPSE
  5
69
330
48
100
AcDbEntity
  8
0
  6
Continuous
 62
     0
370
     0
100
AcDbEllipse
 10
242.820142
 20
524.307598
 30
0.0
 11
0.9999999999999989
 21
1.137923790327683E-8
 31
0.0
210
0.0
220
0.0
230
-1.0
 40
0.987688
 41
1.570796338315949
 42
3.141592665110788
  0
LINE
  5
6A
330
48
100
AcDbEntity
  8
0
  6
Continuous
 62
     0
370
    30
100
AcDbLine
 10
241.820142
 20
524.307598
 30
0.0
 11
241.820142
 21
517.996973
 31
0.0
  0
LINE
  5
6B
330
48
100
AcDbEntity
  8
0
  6
Continuous
 62
     0
370
     0
100
AcDbLine
 10
246.820142
 20
525.089771
 30
0.0
 11
246.820142
 21
523.945648
 31
0.0
  0
LINE
  5
6C
330
48
100
AcDbEntity
  8
0
  6
Continuous
 62
     0
370
     0
100
AcDbLine
 10
272.820142
 20
523.945648
 30
0.0
 11
272.820142
 21
525.089771
 31
0.0
  0
ARC
  5
6D
330
48
100
AcDbEntity
  8
0
  6
Continuous
 62
     0
370
     0
100
AcDbCircle
 10
276.82626
 20
524.313792
 30
0.0
 40
0.9939013668185787
100
AcDbArc
 50
269.647315
 51
359.642919
  0
ELLIPSE
  5
6E
330
48
100
AcDbEntity
  8
0
  6
Continuous
 62
     0
370
     0
100
AcDbEllipse
 10
276.820142
 20
517.996973
 30
0.0
 11
-0.9999999999999989
 21
-1.137923790327683E-8
 31
0.0
210
0.0
220
0.0
230
1.0
 40
0.987688
 41
1.570796315273799
 42
3.141592642068712
  0
LINE
  5
6F
330
48
100
AcDbEntity
  8
0
  6
Continuous
 62
     0
370
    30
100
AcDbLine
 10
277.820142
 20
517.996973
 30
0.0
 11
277.820142
 21
524.307598
 31
0.0
  0
LINE
  5
70
330
48
100
AcDbEntity
  8
0
  6
Continuous
 62
     0
370
    30
100
AcDbLine
 10
277.820142
 20
517.996973
 30
0.0
 11
277.820142
 21
512.070843
 31
0.0
  0
ARC
  5
71
330
48
100
AcDbEntity
  8
0
  6
Continuous
 62
     0
370
     0
100
AcDbCircle
 10
265.049596
 20
489.296927
 30
0.0
 40
19.9269244736297
100
AcDbArc
 50
170.198349
 51
177.145632
  0
LINE
  5
72
330
48
100
AcDbEntity
  8
0
  6
Continuous
 62
     0
370
     0
100
AcDbLine
 10
242.870142
 20
459.49781
 30
0.0
 11
241.870142
 21
459.49781
 31
0.0
  0
LINE
  5
73
330
48
100
AcDbEntity
  8
0
  6
Continuous
 62
     0
370
    30
100
AcDbLine
 10
241.870142
 20
459.49781
 30
0.0
 11
241.870142
 21
357.59781
 31
0.0
  0
LINE
  5
74
330
48
100
AcDbEntity
  8
0
  6
Continuous
 62
     0
370
     0
100
AcDbLine
 10
242.870142
 20
357.59781
 30
0.0
 11
242.870142
 21
459.49781
 31
0.0
  0
LINE
  5
75
330
48
100
AcDbEntity
  8
0
  6
Continuous
 62
     0
370
     0
100
AcDbLine
 10
277.670142
 20
459.49781
 30
0.0
 11
276.670142
 21
459.49781
 31
0.0
  0
LINE
  5
76
330
48
100
AcDbEntity
  8
0
  6
Continuous
 62
     0
370
     0
100
AcDbLine
 10
276.670142
 20
459.49781
 30
0.0
 11
276.670142
 21
357.59781
 31
0.0
  0
LINE
  5
77
330
48
100
AcDbEntity
  8
0
  6
Continuous
 62
     0
370
    30
100
AcDbLine
 10
277.670142
 20
357.59781
 30
0.0
 11
277.670142
 21
459.49781
 31
0.0
  0
LINE
  5
78
330
48
100
AcDbEntity
  8
0
  6
Continuous
 62
     0
370
     0
100
AcDbLine
 10
272.670142
 20
475.49781
 30
0.0
 11
277.670142
 21
475.49781
 31
0.0
  0
LINE
  5
79
330
48
100
AcDbEntity
  8
0
  6
Continuous
 62
     0
370
    30
100
AcDbLine
 10
277.670142
 20
475.49781
 30
0.0
 11
277.670142
 21
489.289242
 31
0.0
  0
LINE
  5
7A
330
48
100
AcDbEntity
  8
0
  6
Continuous
 62
     0
370
     0
100
AcDbLine
 10
277.670142
 20
489.289242
 30
0.0
 11
272.670142
 21
489.289242
 31
0.0
  0
LINE
  5
7B
330
48
100
AcDbEntity
  8
0
  6
Continuous
 62
     0
370
     0
100
AcDbLine
 10
272.670142
 20
489.289242
 30
0.0
 11
272.670142
 21
475.49781
 31
0.0
  0
LINE
  5
7C
330
48
100
AcDbEntity
  8
0
  6
Continuous
 62
     0
370
     0
100
AcDbLine
 10
272.670142
 20
489.289242
 30
0.0
 11
246.870142
 21
489.289242
 31
0.0
  0
LINE
  5
7D
330
48
100
AcDbEntity
  8
0
  6
Continuous
 62
     0
370
     0
100
AcDbLine
 10
246.870142
 20
489.289242
 30
0.0
 11
246.870142
 21
475.49781
 31
0.0
  0
LINE
  5
7E
330
48
100
AcDbEntity
  8
0
  6
Continuous
 62
     0
370
     0
100
AcDbLine
 10
246.870142
 20
475.49781
 30
0.0
 11
272.670142
 21
475.49781
 31
0.0
  0
LINE
  5
7F
330
48
100
AcDbEntity
  8
0
  6
Continuous
 62
     0
370
     0
100
AcDbLine
 10
246.870142
 20
489.289242
 30
0.0
 11
241.870142
 21
489.289242
 31
0.0
  0
LINE
  5
80
330
48
100
AcDbEntity
  8
0
  6
Continuous
 62
     0
370
    30
100
AcDbLine
 10
241.870142
 20
489.289242
 30
0.0
 11
241.870142
 21
475.49781
 31
0.0
  0
LINE
  5
81
330
48
100
AcDbEntity
  8
0
  6
Continuous
 62
     0
370
     0
100
AcDbLine
 10
241.870142
 20
475.49781
 30
0.0
 11
246.870142
 21
475.49781
 31
0.0
  0
LINE
  5
82
330
48
100
AcDbEntity
  8
0
  6
Continuous
 62
     0
370
    30
100
AcDbLine
 10
241.870142
 20
475.49781
 30
0.0
 11
241.870142
 21
459.49781
 31
0.0
  0
LINE
  5
83
330
48
100
AcDbEntity
  8
0
  6
Continuous
 62
     0
370
    30
100
AcDbLine
 10
277.670142
 20
459.49781
 30
0.0
 11
277.670142
 21
475.49781
 31
0.0
  0
LINE
  5
84
330
48
100
AcDbEntity
  8
0
  6
Continuous
 62
     0
370
     0
100
AcDbLine
 10
276.670142
 20
459.49781
 30
0.0
 11
242.870142
 21
459.49781
 31
0.0
  0
LINE
  5
85
330
48
100
AcDbEntity
  8
0
  6
Continuous
 62
     0
370
     0
100
AcDbLine
 10
242.870142
 20
459.49781
 30
0.0
 11
242.870142
 21
474.49781
 31
0.0
  0
LINE
  5
86
330
48
100
AcDbEntity
  8
0
  6
Continuous
 62
     0
370
     0
100
AcDbLine
 10
276.670142
 20
474.49781
 30
0.0
 11
276.670142
 21
459.49781
 31
0.0
  0
LINE
  5
87
330
48
100
AcDbEntity
  8
0
  6
Continuous
 62
     0
370
     0
100
AcDbLine
 10
246.870142
 20
475.49781
 30
0.0
 11
246.870142
 21
474.49781
 31
0.0
  0
LINE
  5
88
330
48
100
AcDbEntity
  8
0
  6
Continuous
 62
     0
370
    30
100
AcDbLine
 10
246.870142
 20
474.49781
 30
0.0
 11
272.670142
 21
474.49781
 31
0.0
  0
LINE
  5
89
330
48
100
AcDbEntity
  8
0
  6
Continuous
 62
     0
370
     0
100
AcDbLine
 10
272.670142
 20
474.49781
 30
0.0
 11
272.670142
 21
475.49781
 31
0.0
  0
LINE
  5
8A
330
48
100
AcDbEntity
  8
0
  6
Continuous
 62
     0
370
    30
100
AcDbLine
 10
272.670142
 20
474.49781
 30
0.0
 11
276.670142
 21
474.49781
 31
0.0
  0
ARC
  5
8B
330
48
100
AcDbEntity
  8
0
  6
Continuous
 62
     0
370
    30
100
AcDbCircle
 10
276.670142
 20
475.49781
 30
0.0
 40
1.000000000001375
100
AcDbArc
 50
270.0
 51
360.0
  0
ARC
  5
8C
330
48
100
AcDbEntity
  8
0
  6
Continuous
 62
     0
370
    30
100
AcDbCircle
 10
242.870142
 20
475.49781
 30
0.0
 40
1.00000000000011
100
AcDbArc
 50
180.0
 51
270.0
  0
LINE
  5
8D
330
48
100
AcDbEntity
  8
0
  6
Continuous
 62
     0
370
    30
100
AcDbLine
 10
242.870142
 20
474.49781
 30
0.0
 11
246.870142
 21
474.49781
 31
0.0
  0
ARC
  5
8E
330
48
100
AcDbEntity
  8
0
  6
Continuous
 62
     0
370
    30
100
AcDbCircle
 10
276.670142
 20
489.289242
 30
0.0
 40
0.9999999999999931
100
AcDbArc
 50
0.0
 51
90.0
  0
ARC
  5
8F
330
48
100
AcDbEntity
  8
0
  6
Continuous
 62
     0
370
    30
100
AcDbCircle
 10
242.870142
 20
489.289242
 30
0.0
 40
0.9999999999999931
100
AcDbArc
 50
90.0
 51
180.0
  0
LINE
  5
90
330
48
100
AcDbEntity
  8
0
  6
Continuous
 62
     0
370
     0
100
AcDbLine
 10
246.870142
 20
489.289242
 30
0.0
 11
246.870142
 21
490.289242
 31
0.0
  0
LINE
  5
91
330
48
100
AcDbEntity
  8
0
  6
Continuous
 62
     0
370
    30
100
AcDbLine
 10
246.870142
 20
490.289242
 30
0.0
 11
242.870142
 21
490.289242
 31
0.0
  0
LINE
  5
92
330
48
100
AcDbEntity
  8
0
  6
Continuous
 62
     0
370
     0
100
AcDbLine
 10
272.670142
 20
489.289242
 30
0.0
 11
272.670142
 21
490.289242
 31
0.0
  0
LINE
  5
93
330
48
100
AcDbEntity
  8
0
  6
Continuous
 62
     0
370
    30
100
AcDbLine
 10
272.670142
 20
490.289242
 30
0.0
 11
246.870142
 21
490.289242
 31
0.0
  0
LINE
  5
94
330
48
100
AcDbEntity
  8
0
  6
Continuous
 62
     0
370
    30
100
AcDbLine
 10
276.670142
 20
490.289242
 30
0.0
 11
272.670142
 21
490.289242
 31
0.0
  0
LINE
  5
95
330
48
100
AcDbEntity
  8
0
  6
Continuous
 62
     0
370
    30
100
AcDbLine
 10
289.770142
 20
357.59781
 30
0.0
 11
230.060759
 21
357.59781
 31
0.0
  0
LINE
  5
96
330
48
100
AcDbEntity
  8
0
  6
Continuous
 62
     0
370
     0
100
AcDbLine
 10
230.060759
 20
357.59781
 30
0.0
 11
230.060759
 21
354.59781
 31
0.0
  0
LINE
  5
97
330
48
100
AcDbEntity
  8
0
  6
Continuous
 62
     0
370
    30
100
AcDbLine
 10
230.060759
 20
354.59781
 30
0.0
 11
289.770142
 21
354.59781
 31
0.0
  0
LINE
  5
98
330
48
100
AcDbEntity
  8
0
  6
Continuous
 62
     0
370
    30
100
AcDbLine
 10
229.770142
 20
354.59781
 30
0.0
 11
230.060759
 21
354.59781
 31
0.0
  0
LINE
  5
99
330
48
100
AcDbEntity
  8
0
  6
Continuous
 62
     0
370
    30
100
AcDbLine
 10
230.060759
 20
357.59781
 30
0.0
 11
229.770142
 21
357.59781
 31
0.0
  0
LINE
  5
9A
330
48
100
AcDbEntity
  8
0
  6
Continuous
 62
     0
370
    30
100
AcDbLine
 10
229.770142
 20
354.59781
 30
0.0
 11
229.770142
 21
357.59781
 31
0.0
  0
LINE
  5
9B
330
48
100
AcDbEntity
  8
0
  6
Continuous
 62
     0
370
    30
100
AcDbLine
 10
289.770142
 20
354.59781
 30
0.0
 11
289.770142
 21
357.59781
 31
0.0
  0
ARC
  5
9C
330
48
100
AcDbEntity
  8
0
  6
Continuous
 62
     0
370
    30
100
AcDbCircle
 10
260.491617
 20
489.289229
 30
0.0
 40
17.50007038884712
100
AcDbArc
 50
168.796994
 51
176.724154
  0
ARC
  5
9D
330
48
100
AcDbEntity
  8
0
  6
Continuous
 62
     0
370
    30
100
AcDbCircle
 10
258.946996
 20
489.279972
 30
0.0
 40
17.60210456775904
100
AcDbArc
 50
3.287018
 51
11.167944
  0
LWPOLYLINE
  5
9E
330
48
100
AcDbEntity
  8
0
  6
Continuous
 62
     0
370
    30
100
AcDbPolyline
 90
       16
 70
     0
 43
0.0
 10
272.820129
 20
527.908569
 10
273.299805
 20
527.904175
 10
273.77359
 20
527.891174
 10
274.235718
 20
527.86969
 10
274.680725
 20
527.839966
 10
275.103302
 20
527.802124
 10
275.499542
 20
527.75647
 10
275.866089
 20
527.703186
 10
276.200836
 20
527.642029
 10
276.50415
 20
527.572021
 10
276.780182
 20
527.489807
 10
277.037415
 20
527.387024
 10
277.290253
 20
527.243164
 10
277.539398
 20
527.021484
 10
277.740601
 20
526.693359
 10
277.820129
 20
526.282959
  0
LINE
  5
9F
330
48
100
AcDbEntity
  8
0
  6
Continuous
 62
     0
370
    30
100
AcDbLine
 10
246.820142
 20
527.908692
 30
0.0
 11
272.820142
 21
527.908692
 31
0.0
  0
LWPOLYLINE
  5
A0
330
48
100
AcDbEntity
  8
0
  6
Continuous
 62
     0
370
    30
100
AcDbPolyline
 90
       16
 70
     0
 43
0.0
 10
246.820145
 20
527.908569
 10
246.340485
 20
527.904175
 10
245.866699
 20
527.891174
 10
245.404556
 20
527.86969
 10
244.959564
 20
527.839966
 10
244.536972
 20
527.802124
 10
244.140732
 20
527.75647
 10
243.7742
 20
527.703186
 10
243.439468
 20
527.642029
 10
243.136124
 20
527.572021
 10
242.860107
 20
527.489807
 10
242.602859
 20
527.387024
 10
242.350021
 20
527.243164
 10
242.100891
 20
527.021484
 10
241.899689
 20
526.693359
 10
241.820145
 20
526.282959
  0
ENDBLK
  5
A2
330
48
100
AcDbEntity
  8
0
100
AcDbBlockEnd
  0
BLOCK
  5
DA
330
A4
100
AcDbEntity
  8
0
100
AcDbBlockBegin
  2
b
 70
     0
 10
145.71714
 20
118.552574
 30
0.0
  3
b
  1

  0
LINE
  5
A5
330
A4
100
AcDbEntity
  8
0
  6
Continuous
 62
     0
370
     0
100
AcDbLine
 10
272.820142
 20
188.006337
 30
0.0
 11
272.820142
 21
187.693471
 31
0.0
  0
ELLIPSE
  5
A6
330
A4
100
AcDbEntity
  8
0
  6
Continuous
 62
     0
370
     0
100
AcDbEllipse
 10
272.820142
 20
192.631913
 30
0.0
 11
-5.0
 21
9.011443765383111E-9
 31
0.0
210
0.0
220
0.0
230
1.0
 40
0.987688
 41
1.570796326794888
 42
3.141592653589782
  0
LINE
  5
A7
330
A4
100
AcDbEntity
  8
0
  6
Continuous
 62
     0
370
    30
100
AcDbLine
 10
277.820142
 20
192.631913
 30
0.0
 11
277.820142
 21
192.944779
 31
0.0
  0
ELLIPSE
  5
A8
330
A4
100
AcDbEntity
  8
0
  6
Continuous
 62
     0
370
     0
100
AcDbEllipse
 10
272.820142
 20
192.944779
 30
0.0
 11
5.0
 21
-9.011443765383111E-9
 31
0.0
210
0.0
220
0.0
230
-1.0
 40
0.987688
 41
0.0000000000000087
 42
1.570796326794905
  0
LINE
  5
A9
330
A4
100
AcDbEntity
  8
0
  6
Continuous
 62
     0
370
     0
100
AcDbLine
 10
246.820142
 20
188.006337
 30
0.0
 11
246.820142
 21
187.693471
 31
0.0
  0
LINE
  5
AA
330
A4
100
AcDbEntity
  8
0
  6
Continuous
 62
     0
370
     0
100
AcDbLine
 10
246.820142
 20
187.693471
 30
0.0
 11
272.820142
 21
187.693471
 31
0.0
  0
LINE
  5
AB
330
A4
100
AcDbEntity
  8
0
  6
Continuous
 62
     0
370
     0
100
AcDbLine
 10
272.820142
 20
188.006337
 30
0.0
 11
246.820142
 21
188.006337
 31
0.0
  0
LINE
  5
AC
330
A4
100
AcDbEntity
  8
0
  6
Continuous
 62
     0
370
    30
100
AcDbLine
 10
241.820142
 20
192.944779
 30
0.0
 11
241.820142
 21
192.631913
 31
0.0
  0
ELLIPSE
  5
AD
330
A4
100
AcDbEntity
  8
0
  6
Continuous
 62
     0
370
     0
100
AcDbEllipse
 10
246.820142
 20
192.631913
 30
0.0
 11
-5.0
 21
9.011443321817446E-9
 31
0.0
210
0.0
220
0.0
230
1.0
 40
0.987688
 41
6.28318530717958
 42
7.85398163397448
  0
ELLIPSE
  5
AE
330
A4
100
AcDbEntity
  8
0
  6
Continuous
 62
     0
370
     0
100
AcDbEllipse
 10
246.820142
 20
192.944779
 30
0.0
 11
5.0
 21
-9.011443321817446E-9
 31
0.0
210
0.0
220
0.0
230
-1.0
 40
0.987688
 41
1.570796326794898
 42
3.141592653589798
  0
LWPOLYLINE
  5
AF
330
A4
100
AcDbEntity
  8
0
  6
Continuous
 62
     0
370
    30
100
AcDbPolyline
 90
       10
 70
     0
 43
0.0
 10
241.820145
 20
267.537048
 10
241.894485
 20
268.393097
 10
242.117584
 20
269.2323
 10
242.481949
 20
270.023529
 10
242.976959
 20
270.737183
 10
243.58902
 20
271.354248
 10
244.304092
 20
271.857239
 10
245.101883
 20
272.230072
 10
245.948029
 20
272.459717
 10
246.820145
 20
272.537048
  0
LWPOLYLINE
  5
B0
330
A4
100
AcDbEntity
  8
0
  6
Continuous
 62
     0
370
     0
100
AcDbPolyline
 90
        9
 70
     0
 43
0.0
 10
242.820145
 20
193.101212
 10
242.89537
 20
192.338562
 10
243.124069
 20
191.590652
 10
243.497314
 20
190.901779
 10
243.989746
 20
190.309555
 10
244.588531
 20
189.822449
 10
245.2854
 20
189.452835
 10
246.042358
 20
189.225861
 10
246.820145
 20
189.150467
  0
LINE
  5
B1
330
A4
100
AcDbEntity
  8
0
  6
Continuous
 62
     0
370
     0
100
AcDbLine
 10
246.820142
 20
189.15046
 30
0.0
 11
272.820142
 21
189.15046
 31
0.0
  0
LWPOLYLINE
  5
B2
330
A4
100
AcDbEntity
  8
0
  6
Continuous
 62
     0
370
     0
100
AcDbPolyline
 90
        9
 70
     0
 43
0.0
 10
272.820129
 20
189.150467
 10
273.592316
 20
189.224777
 10
274.349548
 20
189.450653
 10
275.046997
 20
189.819305
 10
275.646606
 20
190.305664
 10
276.139771
 20
190.897079
 10
276.514008
 20
191.585358
 10
276.743805
 20
192.333008
 10
276.820129
 20
193.101212
  0
LINE
  5
B3
330
A4
100
AcDbEntity
  8
0
  6
Continuous
 62
     0
370
     0
100
AcDbLine
 10
276.820142
 20
193.101213
 30
0.0
 11
276.820142
 21
267.693468
 31
0.0
  0
ARC
  5
B4
330
A4
100
AcDbEntity
  8
0
  6
Continuous
 62
     0
370
     0
100
AcDbCircle
 10
272.820077
 20
267.693404
 30
0.0
 40
4.000064720528718
100
AcDbArc
 50
0.000927
 51
89.999073
  0
LINE
  5
B5
330
A4
100
AcDbEntity
  8
0
  6
Continuous
 62
     0
370
     0
100
AcDbLine
 10
272.820142
 20
271.693468
 30
0.0
 11
246.820142
 21
271.693468
 31
0.0
  0
ARC
  5
B6
330
A4
100
AcDbEntity
  8
0
  6
Continuous
 62
     0
370
     0
100
AcDbCircle
 10
246.820206
 20
267.693404
 30
0.0
 40
4.000064720528702
100
AcDbArc
 50
90.000927
 51
179.999073
  0
LINE
  5
B7
330
A4
100
AcDbEntity
  8
0
  6
Continuous
 62
     0
370
     0
100
AcDbLine
 10
242.820142
 20
267.693468
 30
0.0
 11
242.820142
 21
193.101213
 31
0.0
  0
LWPOLYLINE
  5
B8
330
A4
100
AcDbEntity
  8
0
  6
Continuous
 62
     0
370
    30
100
AcDbPolyline
 90
       10
 70
     0
 43
0.0
 10
272.820129
 20
272.537048
 10
273.682983
 20
272.461365
 10
274.529449
 20
272.233337
 10
275.327942
 20
271.862
 10
276.044067
 20
271.360321
 10
276.657318
 20
270.744415
 10
277.153656
 20
270.031708
 10
277.519501
 20
269.24118
 10
277.744171
 20
268.402313
 10
277.820129
 20
267.537048
  0
ELLIPSE
  5
B9
330
A4
100
AcDbEntity
  8
0
  6
Continuous
 62
     0
370
     0
100
AcDbEllipse
 10
242.820142
 20
267.537034
 30
0.0
 11
0.999999999999992
 21
-1.802294214152712E-9
 31
0.0
210
0.0
220
0.0
230
1.0
 40
0.156434
 41
1.57079632679488
 42
3.141592653589537
  0
LINE
  5
BA
330
A4
100
AcDbEntity
  8
0
  6
Continuous
 62
     0
370
    30
100
AcDbLine
 10
241.820142
 20
267.537034
 30
0.0
 11
241.820142
 21
192.944779
 31
0.0
  0
ELLIPSE
  5
BB
330
A4
100
AcDbEntity
  8
0
  6
Continuous
 62
     0
370
     0
100
AcDbEllipse
 10
242.820142
 20
192.944779
 30
0.0
 11
-0.999999999999992
 21
1.802294214152712E-9
 31
0.0
210
0.0
220
0.0
230
-1.0
 40
0.156434
 41
6.283185307179524
 42
7.853981633974485
  0
LINE
  5
BC
330
A4
100
AcDbEntity
  8
0
  6
Continuous
 62
     0
370
     0
100
AcDbLine
 10
246.820142
 20
188.006337
 30
0.0
 11
246.820142
 21
189.15046
 31
0.0
  0
LINE
  5
BD
330
A4
100
AcDbEntity
  8
0
  6
Continuous
 62
     0
370
     0
100
AcDbLine
 10
272.820142
 20
188.006337
 30
0.0
 11
272.820142
 21
189.15046
 31
0.0
  0
LWPOLYLINE
  5
BE
330
A4
100
AcDbEntity
  8
0
  6
Continuous
 62
     0
370
     0
100
AcDbPolyline
 90
        5
 70
     0
 43
0.0
 10
276.820129
 20
193.101212
 10
277.200745
 20
193.089432
 10
277.524078
 20
193.055893
 10
277.741425
 20
193.005615
 10
277.820129
 20
192.944778
  0
LINE
  5
BF
330
A4
100
AcDbEntity
  8
0
  6
Continuous
 62
     0
370
    30
100
AcDbLine
 10
277.820142
 20
192.944779
 30
0.0
 11
277.820142
 21
267.537034
 31
0.0
  0
ELLIPSE
  5
C0
330
A4
100
AcDbEntity
  8
0
  6
Continuous
 62
     0
370
     0
100
AcDbEllipse
 10
276.820142
 20
267.537034
 30
0.0
 11
0.9999999999999989
 21
-1.802294214152724E-9
 31
0.0
210
0.0
220
0.0
230
1.0
 40
0.156434
 41
0.000000000000175
 42
1.570796326794855
  0
LINE
  5
C1
330
A4
100
AcDbEntity
  8
0
  6
Continuous
 62
     0
370
     0
100
AcDbLine
 10
272.820142
 20
271.693468
 30
0.0
 11
272.820142
 21
272.537034
 31
0.0
  0
LINE
  5
C2
330
A4
100
AcDbEntity
  8
0
  6
Continuous
 62
     0
370
    30
100
AcDbLine
 10
272.820142
 20
272.537034
 30
0.0
 11
246.820142
 21
272.537034
 31
0.0
  0
LINE
  5
C3
330
A4
100
AcDbEntity
  8
0
  6
Continuous
 62
     0
370
     0
100
AcDbLine
 10
246.820142
 20
272.537034
 30
0.0
 11
246.820142
 21
271.693468
 31
0.0
  0
LINE
  5
C4
330
A4
100
AcDbEntity
  8
0
  6
Continuous
 62
     0
370
     0
100
AcDbLine
 10
246.820142
 20
187.693471
 30
0.0
 11
246.820142
 21
187.68128
 31
0.0
  0
LINE
  5
C5
330
A4
100
AcDbEntity
  8
0
  6
Continuous
 62
     0
370
     0
100
AcDbLine
 10
272.820142
 20
187.68116
 30
0.0
 11
272.820142
 21
187.693471
 31
0.0
  0
ARC
  5
C6
330
A4
100
AcDbEntity
  8
0
  6
Continuous
 62
     0
370
    30
100
AcDbCircle
 10
272.670142
 20
124.091309
 30
0.0
 40
5.000000000000005
100
AcDbArc
 50
270.0
 51
0.0
  0
LINE
  5
C7
330
A4
100
AcDbEntity
  8
0
  6
Continuous
 62
     0
370
    30
100
AcDbLine
 10
272.670142
 20
119.091309
 30
0.0
 11
246.870142
 21
119.091309
 31
0.0
  0
ARC
  5
C8
330
A4
100
AcDbEntity
  8
0
  6
Continuous
 62
     0
370
    30
100
AcDbCircle
 10
246.870142
 20
124.091309
 30
0.0
 40
5.0
100
AcDbArc
 50
180.0
 51
270.0
  0
LINE
  5
C9
330
A4
100
AcDbEntity
  8
0
  6
Continuous
 62
     0
370
    30
100
AcDbLine
 10
241.870142
 20
191.935262
 30
0.0
 11
241.870142
 21
124.091309
 31
0.0
  0
LINE
  5
CA
330
A4
100
AcDbEntity
  8
0
  6
Continuous
 62
     0
370
    30
100
AcDbLine
 10
277.670142
 20
124.091309
 30
0.0
 11
277.670142
 21
191.430601
 31
0.0
  0
LINE
  5
CB
330
A4
100
AcDbEntity
  8
0
  6
Continuous
 62
     0
370
     0
100
AcDbLine
 10
276.670142
 20
189.473325
 30
0.0
 11
276.670142
 21
124.091309
 31
0.0
  0
LINE
  5
CC
330
A4
100
AcDbEntity
  8
0
  6
Continuous
 62
     0
370
     0
100
AcDbLine
 10
276.670142
 20
124.091309
 30
0.0
 11
277.670142
 21
124.091309
 31
0.0
  0
LINE
  5
CD
330
A4
100
AcDbEntity
  8
0
  6
Continuous
 62
     0
370
     0
100
AcDbLine
 10
241.870142
 20
124.091309
 30
0.0
 11
242.870142
 21
124.091309
 31
0.0
  0
LINE
  5
CE
330
A4
100
AcDbEntity
  8
0
  6
Continuous
 62
     0
370
     0
100
AcDbLine
 10
242.870142
 20
124.091309
 30
0.0
 11
242.870142
 21
189.59681
 31
0.0
  0
LWPOLYLINE
  5
CF
330
A4
100
AcDbEntity
  8
0
  6
Continuous
 62
     0
370
     0
100
AcDbPolyline
 90
        5
 70
     0
 43
0.0
 10
246.870148
 20
119.091309
 10
246.870148
 20
119.166573
 10
246.870148
 20
119.381042
 10
246.870148
 20
119.702415
 10
246.870148
 20
120.091309
  0
LWPOLYLINE
  5
D0
330
A4
100
AcDbEntity
  8
0
  6
Continuous
 62
     0
370
     0
100
AcDbPolyline
 90
        9
 70
     0
 43
0.0
 10
246.870148
 20
120.091309
 10
246.096802
 20
120.168175
 10
245.343994
 20
120.395653
 10
244.648636
 20
120.764191
 10
244.042709
 20
121.260208
 10
243.545914
 20
121.865471
 10
243.176483
 20
122.560326
 10
242.948029
 20
123.312874
 10
242.870148
 20
124.091309
  0
LINE
  5
D1
330
A4
100
AcDbEntity
  8
0
  6
Continuous
 62
     0
370
     0
100
AcDbLine
 10
272.670142
 20
119.091309
 30
0.0
 11
272.670142
 21
120.091309
 31
0.0
  0
LINE
  5
D2
330
A4
100
AcDbEntity
  8
0
  6
Continuous
 62
     0
370
     0
100
AcDbLine
 10
272.670142
 20
120.091309
 30
0.0
 11
246.870142
 21
120.091309
 31
0.0
  0
LWPOLYLINE
  5
D3
330
A4
100
AcDbEntity
  8
0
  6
Continuous
 62
     0
370
     0
100
AcDbPolyline
 90
        9
 70
     0
 43
0.0
 10
276.670135
 20
124.091309
 10
276.593262
 20
123.31797
 10
276.365784
 20
122.56517
 10
275.997253
 20
121.869812
 10
275.501251
 20
121.263878
 10
274.895966
 20
120.767075
 10
274.201111
 20
120.397644
 10
273.448578
 20
120.169197
 10
272.670135
 20
120.091309
  0
ARC
  5
D4
330
A4
100
AcDbEntity
  8
0
  6
Continuous
 62
     0
370
    30
100
AcDbCircle
 10
259.770142
 20
254.58703
 30
0.0
 40
30.0
100
AcDbArc
 50
187.981586
 51
233.249375
  0
ARC
  5
D5
330
A4
100
AcDbEntity
  8
0
  6
Continuous
 62
     0
370
    30
100
AcDbCircle
 10
259.770142
 20
254.58703
 30
0.0
 40
30.0
100
AcDbArc
 50
306.989357
 51
7.981586
  0
ARC
  5
D6
330
A4
100
AcDbEntity
  8
0
  6
Continuous
 62
     0
370
    30
100
AcDbCircle
 10
259.770142
 20
254.58703
 30
0.0
 40
30.0
100
AcDbArc
 50
7.981586
 51
187.981586
  0
LWPOLYLINE
  5
D7
330
A4
100
AcDbEntity
  8
0
  6
Continuous
 62
     0
370
    30
100
AcDbPolyline
 90
        9
 70
     0
 43
0.0
 10
277.69989
 20
191.555389
 10
277.450226
 20
190.763687
 10
277.070435
 20
190.024551
 10
276.57135
 20
189.358841
 10
275.967346
 20
188.78511
 10
275.27536
 20
188.31926
 10
274.514709
 20
187.974609
 10
273.706879
 20
187.760345
 10
272.820129
 20
187.681274
  0
LINE
  5
D8
330
A4
100
AcDbEntity
  8
0
  6
Continuous
 62
     0
370
    30
100
AcDbLine
 10
246.820142
 20
187.68116
 30
0.0
 11
272.820142
 21
187.68116
 31
0.0
  0
LWPOLYLINE
  5
D9
330
A4
100
AcDbEntity
  8
0
  6
Continuous
 62
     0
370
    30
100
AcDbPolyline
 90
        9
 70
     0
 43
0.0
 10
241.940384
 20
191.555389
 10
242.190063
 20
190.763687
 10
242.569855
 20
190.024551
 10
243.068924
 20
189.358841
 10
243.672943
 20
188.78511
 10
244.364914
 20
188.31926
 10
245.125565
 20
187.974609
 10
245.933395
 20
187.760345
 10
246.820145
 20
187.681274
  0
ENDBLK
  5
DB
330
A4
100
AcDbEntity
  8
0
100
AcDbBlockEnd
  0
BLOCK
  5
121
330
DD
100
AcDbEntity
  8
0
100
AcDbBlockBegin
  2
c
 70
     0
 10
198.559906
 20
88.28463
 30
0.0
  3
c
  1

  0
LINE
  5
DE
330
DD
100
AcDbEntity
  8
0
  6
Continuous
 62
     0
370
    30
100
AcDbLine
 10
492.784128
 20
492.689229
 30
0.0
 11
492.784128
 21
512.070828
 31
0.0
  0
LINE
  5
DF
330
DD
100
AcDbEntity
  8
0
  6
Continuous
 62
     0
370
     0
100
AcDbLine
 10
492.784128
 20
512.070828
 30
0.0
 11
491.784128
 21
512.070828
 31
0.0
  0
LINE
  5
E0
330
DD
100
AcDbEntity
  8
0
  6
Continuous
 62
     0
370
     0
100
AcDbLine
 10
491.784128
 20
512.070828
 30
0.0
 11
491.784128
 21
492.689229
 31
0.0
  0
LINE
  5
E1
330
DD
100
AcDbEntity
  8
0
  6
Continuous
 62
     0
370
    30
100
AcDbLine
 10
491.784128
 20
492.689229
 30
0.0
 11
492.784128
 21
492.689229
 31
0.0
  0
ARC
  5
E2
330
DD
100
AcDbEntity
  8
0
  6
Continuous
 62
     0
370
    30
100
AcDbCircle
 10
497.784128
 20
512.070828
 30
0.0
 40
5.0
100
AcDbArc
 50
99.0
 51
180.0
  0
LWPOLYLINE
  5
E3
330
DD
100
AcDbEntity
  8
0
  6
Continuous
 62
     0
370
    30
100
AcDbPolyline
 90
        9
 70
     0
 43
0.0
 10
540.796448
 20
523.945618
 10
540.73053
 20
523.935181
 10
540.519348
 20
523.901733
 10
540.153198
 20
523.84375
 10
539.640625
 20
523.762573
 10
539.009521
 20
523.662598
 10
538.30249
 20
523.550659
 10
537.567566
 20
523.434204
 10
536.845642
 20
523.319885
  0
LINE
  5
E4
330
DD
100
AcDbEntity
  8
0
  6
Continuous
 62
     0
370
    30
100
AcDbLine
 10
536.845672
 20
523.319895
 30
0.0
 11
497.001955
 21
517.00927
 31
0.0
  0
LINE
  5
E5
330
DD
100
AcDbEntity
  8
0
  6
Continuous
 62
     0
370
    30
100
AcDbLine
 10
541.314814
 20
527.065111
 30
0.0
 11
541.627679
 21
525.089755
 31
0.0
  0
LINE
  5
E6
330
DD
100
AcDbEntity
  8
0
  6
Continuous
 62
     0
370
     0
100
AcDbLine
 10
536.376372
 20
526.282939
 30
0.0
 11
536.689238
 21
524.307583
 31
0.0
  0
LINE
  5
E7
330
DD
100
AcDbEntity
  8
0
  6
Continuous
 62
     0
370
     0
100
AcDbLine
 10
536.689238
 20
524.307583
 30
0.0
 11
541.627679
 21
525.089755
 31
0.0
  0
LINE
  5
E8
330
DD
100
AcDbEntity
  8
0
  6
Continuous
 62
     0
370
     0
100
AcDbLine
 10
541.314814
 20
527.065111
 30
0.0
 11
536.376372
 21
526.282939
 31
0.0
  0
LWPOLYLINE
  5
E9
330
DD
100
AcDbEntity
  8
0
  6
Continuous
 62
     0
370
    30
100
AcDbPolyline
 90
       11
 70
     0
 43
0.0
 10
456.784119
 20
499.9617
 10
456.849152
 20
499.934723
 10
457.04718
 20
499.853638
 10
457.370789
 20
499.723358
 10
457.802094
 20
499.55014
 10
458.323029
 20
499.340271
 10
458.91806
 20
499.099854
 10
459.573395
 20
498.834839
 10
460.275024
 20
498.551239
 10
461.005707
 20
498.256073
 10
461.784119
 20
497.941589
  0
LINE
  5
EA
330
DD
100
AcDbEntity
  8
0
  6
Continuous
 62
     0
370
     0
100
AcDbLine
 10
461.784117
 20
497.941574
 30
0.0
 11
461.784117
 21
514.468686
 31
0.0
  0
LINE
  5
EB
330
DD
100
AcDbEntity
  8
0
  6
Continuous
 62
     0
370
     0
100
AcDbLine
 10
461.784117
 20
514.468686
 30
0.0
 11
456.784117
 21
513.835148
 31
0.0
  0
LINE
  5
EC
330
DD
100
AcDbEntity
  8
0
  6
Continuous
 62
     0
370
    30
100
AcDbLine
 10
456.784117
 20
513.835148
 30
0.0
 11
456.784117
 21
499.961705
 31
0.0
  0
LINE
  5
ED
330
DD
100
AcDbEntity
  8
0
  6
Continuous
 62
     0
370
    30
100
AcDbLine
 10
536.219938
 20
527.270627
 30
0.0
 11
540.170691
 21
527.896365
 31
0.0
  0
LINE
  5
EE
330
DD
100
AcDbEntity
  8
0
  6
Continuous
 62
     0
370
    30
100
AcDbLine
 10
457.627683
 20
514.822837
 30
0.0
 11
461.627683
 21
515.456374
 31
0.0
  0
LINE
  5
EF
330
DD
100
AcDbEntity
  8
0
  6
Continuous
 62
     0
370
    30
100
AcDbLine
 10
461.627683
 20
515.456374
 30
0.0
 11
536.219938
 21
527.270627
 31
0.0
  0
LINE
  5
F0
330
DD
100
AcDbEntity
  8
0
  6
Continuous
 62
     0
370
     0
100
AcDbLine
 10
461.627683
 20
515.456374
 30
0.0
 11
461.784117
 21
514.468686
 31
0.0
  0
LINE
  5
F1
330
DD
100
AcDbEntity
  8
0
  6
Continuous
 62
     0
370
     0
100
AcDbLine
 10
461.784117
 20
514.468686
 30
0.0
 11
536.376372
 21
526.282939
 31
0.0
  0
LINE
  5
F2
330
DD
100
AcDbEntity
  8
0
  6
Continuous
 62
     0
370
     0
100
AcDbLine
 10
536.376372
 20
526.282939
 30
0.0
 11
536.219938
 21
527.270627
 31
0.0
  0
ARC
  5
F3
330
DD
100
AcDbEntity
  8
0
  6
Continuous
 62
     0
370
    30
100
AcDbCircle
 10
540.327125
 20
526.908676
 30
0.0
 40
0.9999999999980499
100
AcDbArc
 50
9.0
 51
99.0
  0
ARC
  5
F4
330
DD
100
AcDbEntity
  8
0
  6
Continuous
 62
     0
370
    30
100
AcDbCircle
 10
457.784117
 20
513.835148
 30
0.0
 40
1.0
100
AcDbArc
 50
99.0
 51
180.0
  0
LWPOLYLINE
  5
F5
330
DD
100
AcDbEntity
  8
0
  6
Continuous
 62
     0
370
     0
100
AcDbPolyline
 90
        5
 70
     0
 43
0.0
 10
497.001953
 20
517.009277
 10
496.990173
 20
517.083618
 10
496.956635
 20
517.29541
 10
496.906372
 20
517.612854
 10
496.84552
 20
517.996948
  0
ARC
  5
F6
330
DD
100
AcDbEntity
  8
0
  6
Continuous
 62
     0
370
     0
100
AcDbCircle
 10
497.784128
 20
512.070828
 30
0.0
 40
6.000000000000369
100
AcDbArc
 50
99.0
 51
180.0
  0
LINE
  5
F7
330
DD
100
AcDbEntity
  8
0
  6
Continuous
 62
     0
370
     0
100
AcDbLine
 10
536.845672
 20
523.319895
 30
0.0
 11
536.689238
 21
524.307583
 31
0.0
  0
LINE
  5
F8
330
DD
100
AcDbEntity
  8
0
  6
Continuous
 62
     0
370
     0
100
AcDbLine
 10
536.689238
 20
524.307583
 30
0.0
 11
496.845521
 21
517.996958
 31
0.0
  0
ARC
  5
F9
330
DD
100
AcDbEntity
  8
0
  6
Continuous
 62
     0
370
    30
100
AcDbCircle
 10
540.639991
 20
524.933321
 30
0.0
 40
1.000000000003288
100
AcDbArc
 50
279.0
 51
9.0
  0
LINE
  5
FA
330
DD
100
AcDbEntity
  8
0
  6
Continuous
 62
     0
370
    30
100
AcDbLine
 10
461.784117
 20
497.941574
 30
0.0
 11
474.423675
 21
492.834861
 31
0.0
  0
ARC
  5
FB
330
DD
100
AcDbEntity
  8
0
  6
Continuous
 62
     0
370
    30
100
AcDbCircle
 10
475.172888
 20
494.689229
 30
0.0
 40
1.999999999999509
100
AcDbArc
 50
248.0
 51
270.0
  0
LINE
  5
FC
330
DD
100
AcDbEntity
  8
0
  6
Continuous
 62
     0
370
    30
100
AcDbLine
 10
475.172888
 20
492.689229
 30
0.0
 11
491.784128
 21
492.689229
 31
0.0
  0
ARC
  5
FD
330
DD
100
AcDbEntity
  8
0
  6
Continuous
 62
     0
370
     0
100
AcDbCircle
 10
447.716675
 20
489.313857
 30
0.0
 40
35.20028580958723
100
AcDbArc
 50
1.587815
 51
5.502575
  0
LINE
  5
FE
330
DD
100
AcDbEntity
  8
0
  6
Continuous
 62
     0
370
     0
100
AcDbLine
 10
492.629812
 20
459.497795
 30
0.0
 11
491.629812
 21
459.497795
 31
0.0
  0
LINE
  5
FF
330
DD
100
AcDbEntity
  8
0
  6
Continuous
 62
     0
370
     0
100
AcDbLine
 10
491.629812
 20
459.497795
 30
0.0
 11
491.629812
 21
357.597795
 31
0.0
  0
LINE
  5
100
330
DD
100
AcDbEntity
  8
0
  6
Continuous
 62
     0
370
    30
100
AcDbLine
 10
492.629812
 20
357.597795
 30
0.0
 11
492.629812
 21
459.497795
 31
0.0
  0
LINE
  5
101
330
DD
100
AcDbEntity
  8
0
  6
Continuous
 62
     0
370
    30
100
AcDbLine
 10
610.229844
 20
489.289227
 30
0.0
 11
610.229844
 21
475.497795
 31
0.0
  0
LINE
  5
102
330
DD
100
AcDbEntity
  8
0
  6
Continuous
 62
     0
370
     0
100
AcDbLine
 10
610.229844
 20
489.289227
 30
0.0
 11
605.229844
 21
489.289227
 31
0.0
  0
LINE
  5
103
330
DD
100
AcDbEntity
  8
0
  6
Continuous
 62
     0
370
     0
100
AcDbLine
 10
605.229844
 20
489.289227
 30
0.0
 11
605.229844
 21
475.497795
 31
0.0
  0
LINE
  5
104
330
DD
100
AcDbEntity
  8
0
  6
Continuous
 62
     0
370
     0
100
AcDbLine
 10
605.229844
 20
475.497795
 30
0.0
 11
610.229844
 21
475.497795
 31
0.0
  0
LINE
  5
105
330
DD
100
AcDbEntity
  8
0
  6
Continuous
 62
     0
370
     0
100
AcDbLine
 10
461.838412
 20
489.289227
 30
0.0
 11
605.229844
 21
489.289227
 31
0.0
  0
LINE
  5
106
330
DD
100
AcDbEntity
  8
0
  6
Continuous
 62
     0
370
     0
100
AcDbLine
 10
461.838412
 20
357.597795
 30
0.0
 11
461.838412
 21
489.289227
 31
0.0
  0
ARC
  5
107
330
DD
100
AcDbEntity
  8
0
  6
Continuous
 62
     0
370
     0
100
AcDbCircle
 10
507.629812
 20
459.497795
 30
0.0
 40
15.99999999999993
100
AcDbArc
 50
90.0
 51
180.0
  0
LINE
  5
108
330
DD
100
AcDbEntity
  8
0
  6
Continuous
 62
     0
370
     0
100
AcDbLine
 10
605.229844
 20
475.497795
 30
0.0
 11
507.629812
 21
475.497795
 31
0.0
  0
LINE
  5
109
330
DD
100
AcDbEntity
  8
0
  6
Continuous
 62
     0
370
     0
100
AcDbLine
 10
461.838412
 20
489.289227
 30
0.0
 11
456.838412
 21
489.289227
 31
0.0
  0
LINE
  5
10A
330
DD
100
AcDbEntity
  8
0
  6
Continuous
 62
     0
370
    30
100
AcDbLine
 10
456.838412
 20
489.289227
 30
0.0
 11
456.838412
 21
357.597795
 31
0.0
  0
ARC
  5
10B
330
DD
100
AcDbEntity
  8
0
  6
Continuous
 62
     0
370
    30
100
AcDbCircle
 10
507.629812
 20
459.497795
 30
0.0
 40
15.0
100
AcDbArc
 50
90.0
 51
180.0
  0
ARC
  5
10C
330
DD
100
AcDbEntity
  8
0
  6
Continuous
 62
     0
370
    30
100
AcDbCircle
 10
609.229844
 20
475.497795
 30
0.0
 40
1.0
100
AcDbArc
 50
270.0
 51
0.0
  0
LINE
  5
10D
330
DD
100
AcDbEntity
  8
0
  6
Continuous
 62
     0
370
     0
100
AcDbLine
 10
605.229844
 20
475.497795
 30
0.0
 11
605.229844
 21
474.497795
 31
0.0
  0
LINE
  5
10E
330
DD
100
AcDbEntity
  8
0
  6
Continuous
 62
     0
370
    30
100
AcDbLine
 10
605.229844
 20
474.497795
 30
0.0
 11
609.229844
 21
474.497795
 31
0.0
  0
LINE
  5
10F
330
DD
100
AcDbEntity
  8
0
  6
Continuous
 62
     0
370
     0
100
AcDbLine
 10
507.629812
 20
475.497795
 30
0.0
 11
507.629812
 21
474.497795
 31
0.0
  0
LINE
  5
110
330
DD
100
AcDbEntity
  8
0
  6
Continuous
 62
     0
370
    30
100
AcDbLine
 10
507.629812
 20
474.497795
 30
0.0
 11
605.229844
 21
474.497795
 31
0.0
  0
ARC
  5
111
330
DD
100
AcDbEntity
  8
0
  6
Continuous
 62
     0
370
    30
100
AcDbCircle
 10
457.838412
 20
489.289227
 30
0.0
 40
1.0
100
AcDbArc
 50
90.0
 51
180.0
  0
LINE
  5
112
330
DD
100
AcDbEntity
  8
0
  6
Continuous
 62
     0
370
     0
100
AcDbLine
 10
461.838412
 20
489.289227
 30
0.0
 11
461.838412
 21
490.289227
 31
0.0
  0
LINE
  5
113
330
DD
100
AcDbEntity
  8
0
  6
Continuous
 62
     0
370
    30
100
AcDbLine
 10
461.838412
 20
490.289227
 30
0.0
 11
457.838412
 21
490.289227
 31
0.0
  0
LINE
  5
114
330
DD
100
AcDbEntity
  8
0
  6
Continuous
 62
     0
370
     0
100
AcDbLine
 10
605.229844
 20
489.289227
 30
0.0
 11
605.229844
 21
490.289227
 31
0.0
  0
LINE
  5
115
330
DD
100
AcDbEntity
  8
0
  6
Continuous
 62
     0
370
    30
100
AcDbLine
 10
605.229844
 20
490.289227
 30
0.0
 11
461.838412
 21
490.289227
 31
0.0
  0
ARC
  5
116
330
DD
100
AcDbEntity
  8
0
  6
Continuous
 62
     0
370
    30
100
AcDbCircle
 10
609.229844
 20
489.289227
 30
0.0
 40
1.00000000000756
100
AcDbArc
 50
0.0
 51
90.0
  0
LWPOLYLINE
  5
117
330
DD
100
AcDbEntity
  8
0
  6
Continuous
 62
     0
370
    30
100
AcDbPolyline
 90
        9
 70
     0
 43
0.0
 10
609.229858
 20
490.289215
 10
609.153259
 20
490.289215
 10
608.926636
 20
490.289215
 10
608.559387
 20
490.289215
 10
608.065063
 20
490.289215
 10
607.461792
 20
490.289215
 10
606.768982
 20
490.289215
 10
606.018311
 20
490.289215
 10
605.229858
 20
490.289215
  0
LINE
  5
118
330
DD
100
AcDbEntity
  8
0
  6
Continuous
 62
     0
370
    30
100
AcDbLine
 10
504.734127
 20
357.597795
 30
0.0
 11
478.899774
 21
357.597795
 31
0.0
  0
LINE
  5
119
330
DD
100
AcDbEntity
  8
0
  6
Continuous
 62
     0
370
     0
100
AcDbLine
 10
478.899774
 20
357.597795
 30
0.0
 11
478.899774
 21
354.597795
 31
0.0
  0
LINE
  5
11A
330
DD
100
AcDbEntity
  8
0
  6
Continuous
 62
     0
370
    30
100
AcDbLine
 10
478.899774
 20
354.597795
 30
0.0
 11
504.734127
 21
354.597795
 31
0.0
  0
LINE
  5
11B
330
DD
100
AcDbEntity
  8
0
  6
Continuous
 62
     0
370
    30
100
AcDbLine
 10
444.734127
 20
354.597795
 30
0.0
 11
478.899774
 21
354.597795
 31
0.0
  0
LINE
  5
11C
330
DD
100
AcDbEntity
  8
0
  6
Continuous
 62
     0
370
    30
100
AcDbLine
 10
478.899774
 20
357.597795
 30
0.0
 11
444.734127
 21
357.597795
 31
0.0
  0
LINE
  5
11D
330
DD
100
AcDbEntity
  8
0
  6
Continuous
 62
     0
370
    30
100
AcDbLine
 10
444.734127
 20
354.597795
 30
0.0
 11
444.734127
 21
357.597795
 31
0.0
  0
LINE
  5
11E
330
DD
100
AcDbEntity
  8
0
  6
Continuous
 62
     0
370
    30
100
AcDbLine
 10
504.734127
 20
354.597795
 30
0.0
 11
504.734127
 21
357.597795
 31
0.0
  0
ARC
  5
11F
330
DD
100
AcDbEntity
  8
0
  6
Continuous
 62
     0
370
    30
100
AcDbCircle
 10
475.455619
 20
489.289196
 30
0.0
 40
17.5000879637231
100
AcDbArc
 50
148.457997
 51
176.724099
  0
ARC
  5
120
330
DD
100
AcDbEntity
  8
0
  6
Continuous
 62
     0
370
    30
100
AcDbCircle
 10
474.016067
 20
489.289648
 30
0.0
 40
17.49663616390543
100
AcDbArc
 50
3.275066
 51
11.203784
  0
ENDBLK
  5
122
330
DD
100
AcDbEntity
  8
0
100
AcDbBlockEnd
  0
BLOCK
  5
168
330
124
100
AcDbEntity
  8
0
100
AcDbBlockBegin
  2
e
 70
     0
 10
142.993652
 20
0.0
 30
0.0
  3
e
  1

  0
LINE
  5
125
330
124
100
AcDbEntity
  8
0
  6
Continuous
 62
     0
370
    30
100
AcDbLine
 10
56.815035
 20
512.070836
 30
0.0
 11
56.815035
 21
492.689237
 31
0.0
  0
LINE
  5
126
330
124
100
AcDbEntity
  8
0
  6
Continuous
 62
     0
370
    30
100
AcDbLine
 10
56.815035
 20
492.689237
 30
0.0
 11
57.815035
 21
492.689237
 31
0.0
  0
LINE
  5
127
330
124
100
AcDbEntity
  8
0
  6
Continuous
 62
     0
370
     0
100
AcDbLine
 10
57.815035
 20
492.689237
 30
0.0
 11
57.815035
 21
512.070836
 31
0.0
  0
LINE
  5
128
330
124
100
AcDbEntity
  8
0
  6
Continuous
 62
     0
370
     0
100
AcDbLine
 10
57.815035
 20
512.070836
 30
0.0
 11
56.815035
 21
512.070836
 31
0.0
  0
ARC
  5
129
330
124
100
AcDbEntity
  8
0
  6
Continuous
 62
     0
370
    30
100
AcDbCircle
 10
51.815035
 20
512.070836
 30
0.0
 40
5.0
100
AcDbArc
 50
0.0
 51
81.0
  0
LINE
  5
12A
330
124
100
AcDbEntity
  8
0
  6
Continuous
 62
     0
370
    30
100
AcDbLine
 10
52.597208
 20
517.009278
 30
0.0
 11
12.753491
 21
523.319902
 31
0.0
  0
LINE
  5
12B
330
124
100
AcDbEntity
  8
0
  6
Continuous
 62
     0
370
    30
100
AcDbLine
 10
12.753491
 20
523.319902
 30
0.0
 11
8.802738
 21
523.94564
 31
0.0
  0
LINE
  5
12C
330
124
100
AcDbEntity
  8
0
  6
Continuous
 62
     0
370
    30
100
AcDbLine
 10
8.284349
 20
527.065119
 30
0.0
 11
7.971484
 21
525.089763
 31
0.0
  0
LINE
  5
12D
330
124
100
AcDbEntity
  8
0
  6
Continuous
 62
     0
370
     0
100
AcDbLine
 10
7.971484
 20
525.089763
 30
0.0
 11
12.909925
 21
524.307591
 31
0.0
  0
LINE
  5
12E
330
124
100
AcDbEntity
  8
0
  6
Continuous
 62
     0
370
     0
100
AcDbLine
 10
12.909925
 20
524.307591
 30
0.0
 11
13.222791
 21
526.282946
 31
0.0
  0
LINE
  5
12F
330
124
100
AcDbEntity
  8
0
  6
Continuous
 62
     0
370
     0
100
AcDbLine
 10
13.222791
 20
526.282946
 30
0.0
 11
8.284349
 21
527.065119
 31
0.0
  0
LWPOLYLINE
  5
130
330
124
100
AcDbEntity
  8
0
  6
Continuous
 62
     0
370
    30
100
AcDbPolyline
 90
        9
 70
     0
 43
0.0
 10
9.428473
 20
527.896362
 10
9.502592
 20
527.884644
 10
9.727899
 20
527.848938
 10
10.095668
 20
527.79071
 10
10.580974
 20
527.713806
 10
11.17101
 20
527.620361
 10
11.857868
 20
527.511597
 10
12.604256
 20
527.393372
 10
13.379226
 20
527.27063
  0
LINE
  5
131
330
124
100
AcDbEntity
  8
0
  6
Continuous
 62
     0
370
    30
100
AcDbLine
 10
13.379225
 20
527.270635
 30
0.0
 11
87.97148
 21
515.456382
 31
0.0
  0
LINE
  5
132
330
124
100
AcDbEntity
  8
0
  6
Continuous
 62
     0
370
    30
100
AcDbLine
 10
87.97148
 20
515.456382
 30
0.0
 11
91.97148
 21
514.822844
 31
0.0
  0
LINE
  5
133
330
124
100
AcDbEntity
  8
0
  6
Continuous
 62
     0
370
    30
100
AcDbLine
 10
92.815046
 20
499.961713
 30
0.0
 11
92.815046
 21
513.835156
 31
0.0
  0
LINE
  5
134
330
124
100
AcDbEntity
  8
0
  6
Continuous
 62
     0
370
     0
100
AcDbLine
 10
92.815046
 20
513.835156
 30
0.0
 11
87.815046
 21
514.468694
 31
0.0
  0
LINE
  5
135
330
124
100
AcDbEntity
  8
0
  6
Continuous
 62
     0
370
     0
100
AcDbLine
 10
87.815046
 20
514.468694
 30
0.0
 11
87.815046
 21
497.941582
 31
0.0
  0
LWPOLYLINE
  5
136
330
124
100
AcDbEntity
  8
0
  6
Continuous
 62
     0
370
    30
100
AcDbPolyline
 90
       11
 70
     0
 43
0.0
 10
87.815048
 20
497.941589
 10
88.556541
 20
498.24115
 10
89.288147
 20
498.536713
 10
89.991684
 20
498.821075
 10
90.649673
 20
499.087158
 10
91.248047
 20
499.328949
 10
91.773018
 20
499.540466
 10
92.209236
 20
499.715698
 10
92.538666
 20
499.848267
 10
92.743294
 20
499.931946
 10
92.815048
 20
499.9617
  0
ARC
  5
137
330
124
100
AcDbEntity
  8
0
  6
Continuous
 62
     0
370
    30
100
AcDbCircle
 10
9.272038
 20
526.908684
 30
0.0
 40
1.000000000000005
100
AcDbArc
 50
81.0
 51
171.0
  0
LINE
  5
138
330
124
100
AcDbEntity
  8
0
  6
Continuous
 62
     0
370
     0
100
AcDbLine
 10
13.379225
 20
527.270635
 30
0.0
 11
13.222791
 21
526.282946
 31
0.0
  0
LINE
  5
139
330
124
100
AcDbEntity
  8
0
  6
Continuous
 62
     0
370
     0
100
AcDbLine
 10
13.222791
 20
526.282946
 30
0.0
 11
87.815046
 21
514.468694
 31
0.0
  0
LINE
  5
13A
330
124
100
AcDbEntity
  8
0
  6
Continuous
 62
     0
370
     0
100
AcDbLine
 10
87.815046
 20
514.468694
 30
0.0
 11
87.97148
 21
515.456382
 31
0.0
  0
ARC
  5
13B
330
124
100
AcDbEntity
  8
0
  6
Continuous
 62
     0
370
    30
100
AcDbCircle
 10
91.815046
 20
513.835156
 30
0.0
 40
0.9999999999982244
100
AcDbArc
 50
0.0
 51
81.0
  0
ARC
  5
13C
330
124
100
AcDbEntity
  8
0
  6
Continuous
 62
     0
370
    30
100
AcDbCircle
 10
8.959172
 20
524.933329
 30
0.0
 40
0.999999999999992
100
AcDbArc
 50
171.0
 51
261.0
  0
LWPOLYLINE
  5
13D
330
124
100
AcDbEntity
  8
0
  6
Continuous
 62
     0
370
     0
100
AcDbPolyline
 90
        5
 70
     0
 43
0.0
 10
12.75349
 20
523.319885
 10
12.765265
 20
523.394226
 10
12.798816
 20
523.606079
 10
12.84909
 20
523.923462
 10
12.909925
 20
524.307617
  0
LINE
  5
13E
330
124
100
AcDbEntity
  8
0
  6
Continuous
 62
     0
370
     0
100
AcDbLine
 10
52.597208
 20
517.009278
 30
0.0
 11
52.753642
 21
517.996966
 31
0.0
  0
LINE
  5
13F
330
124
100
AcDbEntity
  8
0
  6
Continuous
 62
     0
370
     0
100
AcDbLine
 10
52.753642
 20
517.996966
 30
0.0
 11
12.909925
 21
524.307591
 31
0.0
  0
ARC
  5
140
330
124
100
AcDbEntity
  8
0
  6
Continuous
 62
     0
370
     0
100
AcDbCircle
 10
51.815035
 20
512.070836
 30
0.0
 40
6.000000000000053
100
AcDbArc
 50
0.0
 51
81.0
  0
LINE
  5
141
330
124
100
AcDbEntity
  8
0
  6
Continuous
 62
     0
370
    30
100
AcDbLine
 10
74.426275
 20
492.689237
 30
0.0
 11
57.815035
 21
492.689237
 31
0.0
  0
ARC
  5
142
330
124
100
AcDbEntity
  8
0
  6
Continuous
 62
     0
370
    30
100
AcDbCircle
 10
74.426275
 20
494.689237
 30
0.0
 40
1.99999999998593
100
AcDbArc
 50
270.0
 51
292.0
  0
LINE
  5
143
330
124
100
AcDbEntity
  8
0
  6
Continuous
 62
     0
370
    30
100
AcDbLine
 10
87.815046
 20
497.941582
 30
0.0
 11
75.175488
 21
492.834869
 31
0.0
  0
LWPOLYLINE
  5
144
330
124
100
AcDbEntity
  8
0
  6
Continuous
 62
     0
370
     0
100
AcDbPolyline
 90
        4
 70
     0
 43
0.0
 10
83.034355
 20
490.289246
 10
82.944824
 20
492.00592
 10
82.771614
 20
493.708893
 10
82.441368
 20
495.770447
  0
LINE
  5
145
330
124
100
AcDbEntity
  8
0
  6
Continuous
 62
     0
370
     0
100
AcDbLine
 10
57.969351
 20
459.497802
 30
0.0
 11
56.969352
 21
459.497802
 31
0.0
  0
LINE
  5
146
330
124
100
AcDbEntity
  8
0
  6
Continuous
 62
     0
370
    30
100
AcDbLine
 10
56.969352
 20
459.497802
 30
0.0
 11
56.969352
 21
357.597802
 31
0.0
  0
LINE
  5
147
330
124
100
AcDbEntity
  8
0
  6
Continuous
 62
     0
370
     0
100
AcDbLine
 10
57.969351
 20
357.597802
 30
0.0
 11
57.969351
 21
459.497802
 31
0.0
  0
LINE
  5
148
330
124
100
AcDbEntity
  8
0
  6
Continuous
 62
     0
370
     0
100
AcDbLine
 10
-60.63068
 20
475.497802
 30
0.0
 11
-55.630681
 21
475.497802
 31
0.0
  0
LINE
  5
149
330
124
100
AcDbEntity
  8
0
  6
Continuous
 62
     0
370
     0
100
AcDbLine
 10
-55.630681
 20
475.497802
 30
0.0
 11
-55.630681
 21
489.289234
 31
0.0
  0
LINE
  5
14A
330
124
100
AcDbEntity
  8
0
  6
Continuous
 62
     0
370
     0
100
AcDbLine
 10
-55.630681
 20
489.289234
 30
0.0
 11
-60.63068
 21
489.289234
 31
0.0
  0
LINE
  5
14B
330
124
100
AcDbEntity
  8
0
  6
Continuous
 62
     0
370
    30
100
AcDbLine
 10
-60.63068
 20
489.289234
 30
0.0
 11
-60.63068
 21
475.497802
 31
0.0
  0
LINE
  5
14C
330
124
100
AcDbEntity
  8
0
  6
Continuous
 62
     0
370
     0
100
AcDbLine
 10
92.760751
 20
489.289234
 30
0.0
 11
87.760751
 21
489.289234
 31
0.0
  0
LINE
  5
14D
330
124
100
AcDbEntity
  8
0
  6
Continuous
 62
     0
370
     0
100
AcDbLine
 10
87.760751
 20
489.289234
 30
0.0
 11
87.760751
 21
357.597802
 31
0.0
  0
LINE
  5
14E
330
124
100
AcDbEntity
  8
0
  6
Continuous
 62
     0
370
    30
100
AcDbLine
 10
92.760751
 20
357.597802
 30
0.0
 11
92.760751
 21
489.289234
 31
0.0
  0
LINE
  5
14F
330
124
100
AcDbEntity
  8
0
  6
Continuous
 62
     0
370
     0
100
AcDbLine
 10
41.969351
 20
475.497802
 30
0.0
 11
-55.630681
 21
475.497802
 31
0.0
  0
ARC
  5
150
330
124
100
AcDbEntity
  8
0
  6
Continuous
 62
     0
370
     0
100
AcDbCircle
 10
41.969351
 20
459.497802
 30
0.0
 40
16.00000000000008
100
AcDbArc
 50
0.0
 51
90.0
  0
LINE
  5
151
330
124
100
AcDbEntity
  8
0
  6
Continuous
 62
     0
370
     0
100
AcDbLine
 10
-55.630681
 20
489.289234
 30
0.0
 11
87.760751
 21
489.289234
 31
0.0
  0
ARC
  5
152
330
124
100
AcDbEntity
  8
0
  6
Continuous
 62
     0
370
    30
100
AcDbCircle
 10
41.969352
 20
459.497802
 30
0.0
 40
15.0
100
AcDbArc
 50
0.0
 51
90.0
  0
ARC
  5
153
330
124
100
AcDbEntity
  8
0
  6
Continuous
 62
     0
370
    30
100
AcDbCircle
 10
-59.63068
 20
475.497802
 30
0.0
 40
1.0
100
AcDbArc
 50
180.0
 51
270.0
  0
LWPOLYLINE
  5
154
330
124
100
AcDbEntity
  8
0
  6
Continuous
 62
     0
370
    30
100
AcDbPolyline
 90
        9
 70
     0
 43
0.0
 10
-59.63068
 20
474.497803
 10
-59.554096
 20
474.497803
 10
-59.32745
 20
474.497803
 10
-58.960232
 20
474.497803
 10
-58.465912
 20
474.497803
 10
-57.862606
 20
474.497803
 10
-57.16983
 20
474.497803
 10
-56.41914
 20
474.497803
 10
-55.63068
 20
474.497803
  0
LINE
  5
155
330
124
100
AcDbEntity
  8
0
  6
Continuous
 62
     0
370
     0
100
AcDbLine
 10
-55.630681
 20
474.497802
 30
0.0
 11
-55.630681
 21
475.497802
 31
0.0
  0
LINE
  5
156
330
124
100
AcDbEntity
  8
0
  6
Continuous
 62
     0
370
    30
100
AcDbLine
 10
-55.630681
 20
474.497802
 30
0.0
 11
41.969352
 21
474.497802
 31
0.0
  0
LINE
  5
157
330
124
100
AcDbEntity
  8
0
  6
Continuous
 62
     0
370
     0
100
AcDbLine
 10
41.969352
 20
474.497802
 30
0.0
 11
41.969352
 21
475.497802
 31
0.0
  0
LINE
  5
158
330
124
100
AcDbEntity
  8
0
  6
Continuous
 62
     0
370
     0
100
AcDbLine
 10
87.760751
 20
489.289234
 30
0.0
 11
87.760751
 21
490.289234
 31
0.0
  0
LINE
  5
159
330
124
100
AcDbEntity
  8
0
  6
Continuous
 62
     0
370
    30
100
AcDbLine
 10
87.760751
 20
490.289234
 30
0.0
 11
-55.630681
 21
490.289234
 31
0.0
  0
LINE
  5
15A
330
124
100
AcDbEntity
  8
0
  6
Continuous
 62
     0
370
     0
100
AcDbLine
 10
-55.630681
 20
490.289234
 30
0.0
 11
-55.630681
 21
489.289234
 31
0.0
  0
ARC
  5
15B
330
124
100
AcDbEntity
  8
0
  6
Continuous
 62
     0
370
    30
100
AcDbCircle
 10
91.760751
 20
489.289234
 30
0.0
 40
1.000000000002997
100
AcDbArc
 50
0.0
 51
90.0
  0
LINE
  5
15C
330
124
100
AcDbEntity
  8
0
  6
Continuous
 62
     0
370
    30
100
AcDbLine
 10
91.760751
 20
490.289234
 30
0.0
 11
87.760751
 21
490.289234
 31
0.0
  0
ARC
  5
15D
330
124
100
AcDbEntity
  8
0
  6
Continuous
 62
     0
370
    30
100
AcDbCircle
 10
-59.63068
 20
489.289234
 30
0.0
 40
1.0
100
AcDbArc
 50
90.0
 51
180.0
  0
LINE
  5
15E
330
124
100
AcDbEntity
  8
0
  6
Continuous
 62
     0
370
    30
100
AcDbLine
 10
-55.630681
 20
490.289234
 30
0.0
 11
-59.63068
 21
490.289234
 31
0.0
  0
LINE
  5
15F
330
124
100
AcDbEntity
  8
0
  6
Continuous
 62
     0
370
     0
100
AcDbLine
 10
79.03068
 20
354.597802
 30
0.0
 11
79.03068
 21
357.597802
 31
0.0
  0
LINE
  5
160
330
124
100
AcDbEntity
  8
0
  6
Continuous
 62
     0
370
    30
100
AcDbLine
 10
79.03068
 20
357.597802
 30
0.0
 11
44.865036
 21
357.597802
 31
0.0
  0
LINE
  5
161
330
124
100
AcDbEntity
  8
0
  6
Continuous
 62
     0
370
    30
100
AcDbLine
 10
44.865036
 20
354.597802
 30
0.0
 11
79.03068
 21
354.597802
 31
0.0
  0
LINE
  5
162
330
124
100
AcDbEntity
  8
0
  6
Continuous
 62
     0
370
    30
100
AcDbLine
 10
79.03068
 20
354.597802
 30
0.0
 11
104.865036
 21
354.597802
 31
0.0
  0
LINE
  5
163
330
124
100
AcDbEntity
  8
0
  6
Continuous
 62
     0
370
    30
100
AcDbLine
 10
104.865036
 20
357.597802
 30
0.0
 11
79.03068
 21
357.597802
 31
0.0
  0
LINE
  5
164
330
124
100
AcDbEntity
  8
0
  6
Continuous
 62
     0
370
    30
100
AcDbLine
 10
104.865036
 20
354.597802
 30
0.0
 11
104.865036
 21
357.597802
 31
0.0
  0
LINE
  5
165
330
124
100
AcDbEntity
  8
0
  6
Continuous
 62
     0
370
    30
100
AcDbLine
 10
44.865036
 20
354.597802
 30
0.0
 11
44.865036
 21
357.597802
 31
0.0
  0
ARC
  5
166
330
124
100
AcDbEntity
  8
0
  6
Continuous
 62
     0
370
    30
100
AcDbCircle
 10
74.143544
 20
489.289203
 30
0.0
 40
17.50008796372298
100
AcDbArc
 50
3.275901
 51
31.542003
  0
ARC
  5
167
330
124
100
AcDbEntity
  8
0
  6
Continuous
 62
     0
370
    30
100
AcDbCircle
 10
75.583096
 20
489.289655
 30
0.0
 40
17.49663616390566
100
AcDbArc
 50
168.796216
 51
176.724934
  0
ENDBLK
  5
169
330
124
100
AcDbEntity
  8
0
100
AcDbBlockEnd
  0
ENDSEC
  0
SECTION
  2
ENTITIES
  0
INSERT
  5
A3
330
1F
100
AcDbEntity
  8
0
  6
Continuous
 62
   250
370
     0
100
AcDbBlockReference
  2
a
 10
198.559906
 20
118.552574
 30
0.0
  0
INSERT
  5
DC
330
1F
100
AcDbEntity
  8
0
  6
Continuous
 62
   250
370
     0
100
AcDbBlockReference
  2
b
 10
145.71714
 20
118.552574
 30
0.0
  0
INSERT
  5
123
330
1F
100
AcDbEntity
  8
0
  6
Continuous
 62
   250
370
     0
100
AcDbBlockReference
  2
c
 10
198.559906
 20
88.28463
 30
0.0
  0
INSERT
  5
16A
330
1F
100
AcDbEntity
  8
0
  6
Continuous
 62
   250
370
     0
100
AcDbBlockReference
  2
e
 10
142.993652
 20
0.0
 30
0.0
  0
ENDSEC
  0
SECTION
  2
OBJECTS
  0
DICTIONARY
  5
C
330
0
100
AcDbDictionary
281
     1
  3
ACAD_GROUP
350
D
  3
ACAD_LAYOUT
350
1A
  3
ACAD_MLEADERSTYLE
350
16D
  3
ACAD_MLINESTYLE
350
17
  3
ACAD_PLOTSETTINGS
350
19
  3
ACAD_PLOTSTYLENAME
350
E
  3
ACAD_VISUALSTYLE
350
2A
  3
AcDbVariableDictionary
350
16B
  0
DICTIONARY
  5
D
102
{ACAD_REACTORS
330
C
102
}
330
C
100
AcDbDictionary
281
     1
  0
DICTIONARY
  5
1A
102
{ACAD_REACTORS
330
C
102
}
330
C
100
AcDbDictionary
281
     1
  3
Layout1
350
1E
  3
Layout2
350
26
  3
Model
350
22
  0
DICTIONARY
  5
16D
102
{ACAD_REACTORS
330
C
102
}
330
C
100
AcDbDictionary
281
     1
  0
DICTIONARY
  5
17
102
{ACAD_REACTORS
330
C
102
}
330
C
100
AcDbDictionary
281
     1
  3
Standard
350
18
  0
DICTIONARY
  5
19
102
{ACAD_REACTORS
330
C
102
}
330
C
100
AcDbDictionary
281
     1
  0
ACDBDICTIONARYWDFLT
  5
E
102
{ACAD_REACTORS
330
C
102
}
330
C
100
AcDbDictionary
281
     1
  3
Normal
350
F
100
AcDbDictionaryWithDefault
340
F
  0
DICTIONARY
  5
2A
102
{ACAD_REACTORS
330
C
102
}
330
C
100
AcDbDictionary
281
     1
  3
2dWireframe
350
2F
  3
3D Hidden
350
31
  3
3dWireframe
350
30
  3
Basic
350
32
  3
Brighten
350
36
  3
ColorChange
350
3A
  3
Conceptual
350
34
  3
Dim
350
35
  3
Facepattern
350
39
  3
Flat
350
2B
  3
FlatWithEdges
350
2C
  3
Gouraud
350
2D
  3
GouraudWithEdges
350
2E
  3
Linepattern
350
38
  3
Realistic
350
33
  3
Thicken
350
37
  0
DICTIONARY
  5
16B
102
{ACAD_REACTORS
330
C
102
}
330
C
100
AcDbDictionary
281
     1
  3
PSOLHEIGHT
350
16F
  3
PSOLWIDTH
350
16E
  0
LAYOUT
  5
1E
102
{ACAD_REACTORS
330
1A
102
}
330
1A
100
AcDbPlotSettings
  1

  2
none_device
  4

  6

 40
0.0
 41
0.0
 42
0.0
 43
0.0
 44
0.0
 45
0.0
 46
0.0
 47
0.0
 48
0.0
 49
0.0
140
0.0
141
0.0
142
1.0
143
1.0
 70
   688
 72
     0
 73
     0
 74
     5
  7

 75
    16
147
1.0
148
0.0
149
0.0
100
AcDbLayout
  1
Layout1
 70
     1
 71
     1
 10
0.0
 20
0.0
 11
420.0
 21
297.0
 12
0.0
 22
0.0
 32
0.0
 14
1.000000E+20
 24
1.000000E+20
 34
1.000000E+20
 15
-1.000000E+20
 25
-1.000000E+20
 35
-1.000000E+20
146
0.0
 13
0.0
 23
0.0
 33
0.0
 16
1.0
 26
0.0
 36
0.0
 17
0.0
 27
1.0
 37
0.0
 76
     0
330
1B
  0
LAYOUT
  5
26
102
{ACAD_REACTORS
330
1A
102
}
330
1A
100
AcDbPlotSettings
  1

  2
none_device
  4

  6

 40
0.0
 41
0.0
 42
0.0
 43
0.0
 44
0.0
 45
0.0
 46
0.0
 47
0.0
 48
0.0
 49
0.0
140
0.0
141
0.0
142
1.0
143
1.0
 70
   688
 72
     0
 73
     0
 74
     5
  7

 75
    16
147
1.0
148
0.0
149
0.0
100
AcDbLayout
  1
Layout2
 70
     1
 71
     2
 10
0.0
 20
0.0
 11
0.0
 21
0.0
 12
0.0
 22
0.0
 32
0.0
 14
0.0
 24
0.0
 34
0.0
 15
0.0
 25
0.0
 35
0.0
146
0.0
 13
0.0
 23
0.0
 33
0.0
 16
1.0
 26
0.0
 36
0.0
 17
0.0
 27
1.0
 37
0.0
 76
     0
330
23
  0
LAYOUT
  5
22
102
{ACAD_REACTORS
330
1A
102
}
330
1A
100
AcDbPlotSettings
  1

  2
none_device
  4

  6

 40
0.0
 41
0.0
 42
0.0
 43
0.0
 44
0.0
 45
0.0
 46
0.0
 47
0.0
 48
0.0
 49
0.0
140
0.0
141
0.0
142
1.0
143
1.0
 70
  1712
 72
     0
 73
     0
 74
     0
  7

 75
     0
147
1.0
148
0.0
149
0.0
100
AcDbLayout
  1
Model
 70
     1
 71
     0
 10
-60.63068
 20
108.77182
 11
610.229858
 21
527.908691
 12
0.0
 22
0.0
 32
0.0
 14
-60.63068
 24
108.77182
 34
0.0
 15
610.229858
 25
527.908691
 35
0.0
146
0.0
 13
0.0
 23
0.0
 33
0.0
 16
1.0
 26
0.0
 36
0.0
 17
0.0
 27
1.0
 37
0.0
 76
     0
330
1F
331
29
  0
MLINESTYLE
  5
18
102
{ACAD_REACTORS
330
17
102
}
330
17
100
AcDbMlineStyle
  2
Standard
 70
     0
  3

 62
   256
 51
90.0
 52
90.0
 71
     2
 49
0.5
 62
   256
  6
BYLAYER
 49
-0.5
 62
   256
  6
BYLAYER
  0
ACDBPLACEHOLDER
  5
F
102
{ACAD_REACTORS
330
E
102
}
330
E
  0
VISUALSTYLE
  5
2F
102
{ACAD_REACTORS
330
2A
102
}
330
2A
100
AcDbVisualStyle
  2
2dWireframe
 70
     4
 71
     0
 72
     2
 73
     0
 90
        0
 40
-0.6
 41
-30.0
 62
     5
 63
     7
 74
     1
 91
        4
 64
     7
 65
   257
 75
     1
175
     1
 42
1.0
 92
        0
 66
   257
 43
1.0
 76
     1
 77
     6
 78
     2
 67
     7
 79
     5
170
     0
171
     0
290
     0
174
     0
 93
        1
 44
0.0
173
     0
291
     0
 45
0.0
1001
ACAD
1000
AcDbSavedByObjectVersion
1070
     0
  0
VISUALSTYLE
  5
31
102
{ACAD_REACTORS
330
2A
102
}
330
2A
100
AcDbVisualStyle
  2
3D Hidden
 70
     6
 71
     1
 72
     2
 73
     2
 90
        0
 40
-0.6
 41
-30.0
 62
     5
 63
     7
 74
     2
 91
        2
 64
     7
 65
   257
 75
     2
175
     1
 42
40.0
 92
        0
 66
   257
 43
1.0
 76
     1
 77
     6
 78
     2
 67
     7
 79
     3
170
     0
171
     0
290
     0
174
     0
 93
        1
 44
0.0
173
     0
291
     0
 45
0.0
1001
ACAD
1000
AcDbSavedByObjectVersion
1070
     0
  0
VISUALSTYLE
  5
30
102
{ACAD_REACTORS
330
2A
102
}
330
2A
100
AcDbVisualStyle
  2
3dWireframe
 70
     5
 71
     0
 72
     2
 73
     0
 90
        0
 40
-0.6
 41
-30.0
 62
     5
 63
     7
 74
     1
 91
        4
 64
     7
 65
   257
 75
     1
175
     1
 42
1.0
 92
        0
 66
   257
 43
1.0
 76
     1
 77
     6
 78
     2
 67
     7
 79
     5
170
     0
171
     0
290
     0
174
     0
 93
        1
 44
0.0
173
     0
291
     0
 45
0.0
1001
ACAD
1000
AcDbSavedByObjectVersion
1070
     0
  0
VISUALSTYLE
  5
32
102
{ACAD_REACTORS
330
2A
102
}
330
2A
100
AcDbVisualStyle
  2
Basic
 70
     7
 71
     1
 72
     0
 73
     1
 90
        0
 40
-0.6
 41
-30.0
 62
     5
 63
     7
 74
     0
 91
        4
 64
     7
 65
   257
 75
     1
175
     1
 42
1.0
 92
        8
 66
     7
 43
1.0
 76
     1
 77
     6
 78
     2
 67
     7
 79
     5
170
     0
171
     0
290
     0
174
     0
 93
        1
 44
0.0
173
     0
291
     1
 45
0.0
1001
ACAD
1000
AcDbSavedByObjectVersion
1070
     0
  0
VISUALSTYLE
  5
36
102
{ACAD_REACTORS
330
2A
102
}
330
2A
100
AcDbVisualStyle
  2
Brighten
 70
    12
 71
     2
 72
     2
 73
     0
 90
        0
 40
-0.6
 41
-30.0
 62
     5
 63
     7
 74
     1
 91
        4
 64
     7
 65
   257
 75
     1
175
     1
 42
1.0
 92
        8
 66
     7
 43
1.0
 76
     1
 77
     6
 78
     2
 67
     7
 79
     5
170
     0
171
     0
290
     0
174
     0
 93
        1
 44
50.0
173
     0
291
     1
 45
0.0
1001
ACAD
1000
AcDbSavedByObjectVersion
1070
     0
  0
VISUALSTYLE
  5
3A
102
{ACAD_REACTORS
330
2A
102
}
330
2A
100
AcDbVisualStyle
  2
ColorChange
 70
    16
 71
     2
 72
     2
 73
     3
 90
        0
 40
-0.6
 41
-30.0
 62
     5
 63
     8
 74
     1
 91
        4
 64
     7
 65
   257
 75
     1
175
     1
 42
1.0
 92
        8
 66
     8
 43
1.0
 76
     1
 77
     6
 78
     2
 67
     7
 79
     5
170
     0
171
     0
290
     0
174
     0
 93
        1
 44
0.0
173
     0
291
     1
 45
0.0
1001
ACAD
1000
AcDbSavedByObjectVersion
1070
     0
  0
VISUALSTYLE
  5
34
102
{ACAD_REACTORS
330
2A
102
}
330
2A
100
AcDbVisualStyle
  2
Conceptual
 70
     9
 71
     3
 72
     2
 73
     0
 90
        0
 40
-0.6
 41
-30.0
 62
     5
 63
     7
 74
     2
 91
        2
 64
     7
 65
   257
 75
     1
175
     1
 42
40.0
 92
        8
 66
     7
 43
1.0
 76
     1
 77
     6
 78
     2
 67
     7
 79
     3
170
     0
171
     0
290
     0
174
     0
 93
        1
 44
0.0
173
     0
291
     0
 45
0.0
1001
ACAD
1000
AcDbSavedByObjectVersion
1070
     0
  0
VISUALSTYLE
  5
35
102
{ACAD_REACTORS
330
2A
102
}
330
2A
100
AcDbVisualStyle
  2
Dim
 70
    11
 71
     2
 72
     2
 73
     0
 90
        0
 40
-0.6
 41
-30.0
 62
     5
 63
     7
 74
     1
 91
        4
 64
     7
 65
   257
 75
     1
175
     1
 42
1.0
 92
        8
 66
     7
 43
1.0
 76
     1
 77
     6
 78
     2
 67
     7
 79
     5
170
     0
171
     0
290
     0
174
     0
 93
        1
 44
-50.0
173
     0
291
     1
 45
0.0
1001
ACAD
1000
AcDbSavedByObjectVersion
1070
     0
  0
VISUALSTYLE
  5
39
102
{ACAD_REACTORS
330
2A
102
}
330
2A
100
AcDbVisualStyle
  2
Facepattern
 70
    15
 71
     2
 72
     2
 73
     0
 90
        0
 40
-0.6
 41
-30.0
 62
     5
 63
     7
 74
     1
 91
        4
 64
     7
 65
   257
 75
     1
175
     1
 42
1.0
 92
        8
 66
     7
 43
1.0
 76
     1
 77
     6
 78
     2
 67
     7
 79
     5
170
     0
171
     0
290
     0
174
     0
 93
        1
 44
0.0
173
     0
291
     1
 45
0.0
1001
ACAD
1000
AcDbSavedByObjectVersion
1070
     0
  0
VISUALSTYLE
  5
2B
102
{ACAD_REACTORS
330
2A
102
}
330
2A
100
AcDbVisualStyle
  2
Flat
 70
     0
 71
     2
 72
     1
 73
     1
 90
        2
 40
-0.6
 41
30.0
 62
     5
 63
     7
 74
     0
 91
        4
 64
     7
 65
   257
 75
     1
175
     1
 42
1.0
 92
        8
 66
     7
 43
1.0
 76
     1
 77
     6
 78
     2
 67
     7
 79
     5
170
     0
171
     0
290
     0
174
     0
 93
       13
 44
0.0
173
     0
291
     1
 45
0.0
1001
ACAD
1000
AcDbSavedByObjectVersion
1070
     0
  0
VISUALSTYLE
  5
2C
102
{ACAD_REACTORS
330
2A
102
}
330
2A
100
AcDbVisualStyle
  2
FlatWithEdges
 70
     1
 71
     2
 72
     1
 73
     1
 90
        2
 40
-0.6
 41
30.0
 62
     5
 63
     7
 74
     1
 91
        4
 64
     7
 65
   257
 75
     1
175
     1
 42
1.0
 92
        0
 66
   257
 43
1.0
 76
     1
 77
     6
 78
     2
 67
     7
 79
     5
170
     0
171
     0
290
     0
174
     0
 93
       13
 44
0.0
173
     0
291
     1
 45
0.0
1001
ACAD
1000
AcDbSavedByObjectVersion
1070
     0
  0
VISUALSTYLE
  5
2D
102
{ACAD_REACTORS
330
2A
102
}
330
2A
100
AcDbVisualStyle
  2
Gouraud
 70
     2
 71
     2
 72
     2
 73
     1
 90
        2
 40
-0.6
 41
30.0
 62
     5
 63
     7
 74
     0
 91
        4
 64
     7
 65
   257
 75
     1
175
     1
 42
1.0
 92
        0
 66
     7
 43
1.0
 76
     1
 77
     6
 78
     2
 67
     7
 79
     5
170
     0
171
     0
290
     0
174
     0
 93
       13
 44
0.0
173
     0
291
     1
 45
0.0
1001
ACAD
1000
AcDbSavedByObjectVersion
1070
     0
  0
VISUALSTYLE
  5
2E
102
{ACAD_REACTORS
330
2A
102
}
330
2A
100
AcDbVisualStyle
  2
GouraudWithEdges
 70
     3
 71
     2
 72
     2
 73
     1
 90
        2
 40
-0.6
 41
30.0
 62
     5
 63
     7
 74
     1
 91
        4
 64
     7
 65
   257
 75
     1
175
     1
 42
1.0
 92
        0
 66
   257
 43
1.0
 76
     1
 77
     6
 78
     2
 67
     7
 79
     5
170
     0
171
     0
290
     0
174
     0
 93
       13
 44
0.0
173
     0
291
     1
 45
0.0
1001
ACAD
1000
AcDbSavedByObjectVersion
1070
     0
  0
VISUALSTYLE
  5
38
102
{ACAD_REACTORS
330
2A
102
}
330
2A
100
AcDbVisualStyle
  2
Linepattern
 70
    14
 71
     2
 72
     2
 73
     0
 90
        0
 40
-0.6
 41
-30.0
 62
     5
 63
     7
 74
     1
 91
        4
 64
     7
 65
   257
 75
     7
175
     7
 42
1.0
 92
        8
 66
     7
 43
1.0
 76
     1
 77
     6
 78
     2
 67
     7
 79
     5
170
     0
171
     0
290
     0
174
     0
 93
        1
 44
0.0
173
     0
291
     1
 45
0.0
1001
ACAD
1000
AcDbSavedByObjectVersion
1070
     0
  0
VISUALSTYLE
  5
33
102
{ACAD_REACTORS
330
2A
102
}
330
2A
100
AcDbVisualStyle
  2
Realistic
 70
     8
 71
     2
 72
     2
 73
     0
 90
        0
 40
-0.6
 41
-30.0
 62
     5
 63
     7
 74
     1
 91
        0
 64
     7
 65
   257
 75
     1
175
     1
 42
1.0
 92
        8
 66
     8
 43
1.0
 76
     1
 77
     6
 78
     2
 67
     7
 79
     5
170
     0
171
     0
290
     0
174
     0
 93
       13
 44
0.0
173
     0
291
     0
 45
0.0
1001
ACAD
1000
AcDbSavedByObjectVersion
1070
     0
  0
VISUALSTYLE
  5
37
102
{ACAD_REACTORS
330
2A
102
}
330
2A
100
AcDbVisualStyle
  2
Thicken
 70
    13
 71
     2
 72
     2
 73
     0
 90
        0
 40
-0.6
 41
-30.0
 62
     5
 63
     7
 74
     1
 91
        4
 64
     7
 65
   257
 75
     1
175
     1
 42
1.0
 92
       12
 66
     7
 43
1.0
 76
     1
 77
     6
 78
     2
 67
     7
 79
     5
170
     0
171
     0
290
     0
174
     0
 93
        1
 44
0.0
173
     0
291
     1
 45
0.0
1001
ACAD
1000
AcDbSavedByObjectVersion
1070
     0
  0
DICTIONARYVAR
  5
16F
102
{ACAD_REACTORS
330
16B
102
}
330
16B
100
DictionaryVariables
280
     0
  1
80.000000
  0
DICTIONARYVAR
  5
16E
102
{ACAD_REACTORS
330
16B
102
}
330
16B
100
DictionaryVariables
280
     0
  1
5.000000
  0
ENDSEC
  0
EOF
