  0
SECTION
  2
HEADER
  9
$ACADVER
  1
AC1027
  9
$ACADMAINTVER
 70
   118
  9
$DWGCODEPAGE
  3
ANSI_1252
  9
$LASTSAVEDBY
  1
tburke
  9
$REQUIREDVERSIONS
160
                 0
  9
$INSBASE
 10
0.0
 20
0.0
 30
0.0
  9
$EXTMIN
 10
0.0000000000000853
 20
-0.0000151244555206
 30
0.0
  9
$EXTMAX
 10
1300.861068692483
 20
665.8612184184878
 30
0.0
  9
$LIMMIN
 10
0.0
 20
0.0
  9
$LIMMAX
 10
12.0
 20
9.0
  9
$ORTHOMODE
 70
     0
  9
$REGENMODE
 70
     1
  9
$FILLMODE
 70
     1
  9
$QTEXTMODE
 70
     0
  9
$MIRRTEXT
 70
     1
  9
$LTSCALE
 40
1.0
  9
$ATTMODE
 70
     1
  9
$TEXTSIZE
 40
0.2
  9
$TRACEWID
 40
0.05
  9
$TEXTSTYLE
  7
Standard
  9
$CLAYER
  8
Bounding Box
  9
$CELTYPE
  6
ByLayer
  9
$CECOLOR
 62
   256
  9
$CELTSCALE
 40
1.0
  9
$DISPSILH
 70
     0
  9
$DIMSCALE
 40
1.0
  9
$DIMASZ
 40
0.18
  9
$DIMEXO
 40
0.0625
  9
$DIMDLI
 40
0.38
  9
$DIMRND
 40
0.0
  9
$DIMDLE
 40
0.0
  9
$DIMEXE
 40
0.18
  9
$DIMTP
 40
0.0
  9
$DIMTM
 40
0.0
  9
$DIMTXT
 40
0.18
  9
$DIMCEN
 40
0.09
  9
$DIMTSZ
 40
0.0
  9
$DIMTOL
 70
     0
  9
$DIMLIM
 70
     0
  9
$DIMTIH
 70
     1
  9
$DIMTOH
 70
     1
  9
$DIMSE1
 70
     0
  9
$DIMSE2
 70
     0
  9
$DIMTAD
 70
     0
  9
$DIMZIN
 70
     0
  9
$DIMBLK
  1

  9
$DIMASO
 70
     1
  9
$DIMSHO
 70
     1
  9
$DIMPOST
  1

  9
$DIMAPOST
  1

  9
$DIMALT
 70
     0
  9
$DIMALTD
 70
     2
  9
$DIMALTF
 40
25.4
  9
$DIMLFAC
 40
1.0
  9
$DIMTOFL
 70
     0
  9
$DIMTVP
 40
0.0
  9
$DIMTIX
 70
     0
  9
$DIMSOXD
 70
     0
  9
$DIMSAH
 70
     0
  9
$DIMBLK1
  1

  9
$DIMBLK2
  1

  9
$DIMSTYLE
  2
Standard
  9
$DIMCLRD
 70
     0
  9
$DIMCLRE
 70
     0
  9
$DIMCLRT
 70
     0
  9
$DIMTFAC
 40
1.0
  9
$DIMGAP
 40
0.09
  9
$DIMJUST
 70
     0
  9
$DIMSD1
 70
     0
  9
$DIMSD2
 70
     0
  9
$DIMTOLJ
 70
     1
  9
$DIMTZIN
 70
     0
  9
$DIMALTZ
 70
     0
  9
$DIMALTTZ
 70
     0
  9
$DIMUPT
 70
     0
  9
$DIMDEC
 70
     4
  9
$DIMTDEC
 70
     4
  9
$DIMALTU
 70
     2
  9
$DIMALTTD
 70
     2
  9
$DIMTXSTY
  7
Standard
  9
$DIMAUNIT
 70
     0
  9
$DIMADEC
 70
     0
  9
$DIMALTRND
 40
0.0
  9
$DIMAZIN
 70
     0
  9
$DIMDSEP
 70
    46
  9
$DIMATFIT
 70
     3
  9
$DIMFRAC
 70
     0
  9
$DIMLDRBLK
  1

  9
$DIMLUNIT
 70
     2
  9
$DIMLWD
 70
    -2
  9
$DIMLWE
 70
    -2
  9
$DIMTMOVE
 70
     2
  9
$DIMFXL
 40
1.0
  9
$DIMFXLON
 70
     0
  9
$DIMJOGANG
 40
0.7853981633974483
  9
$DIMTFILL
 70
     0
  9
$DIMTFILLCLR
 70
     0
  9
$DIMARCSYM
 70
     0
  9
$DIMLTYPE
  6

  9
$DIMLTEX1
  6

  9
$DIMLTEX2
  6

  9
$DIMTXTDIRECTION
 70
     0
  9
$LUNITS
 70
     2
  9
$LUPREC
 70
     3
  9
$SKETCHINC
 40
0.1
  9
$FILLETRAD
 40
0.5
  9
$AUNITS
 70
     0
  9
$AUPREC
 70
     0
  9
$MENU
  1
.
  9
$ELEVATION
 40
0.0
  9
$PELEVATION
 40
0.0
  9
$THICKNESS
 40
0.0
  9
$LIMCHECK
 70
     0
  9
$CHAMFERA
 40
0.0
  9
$CHAMFERB
 40
0.0
  9
$CHAMFERC
 40
0.0
  9
$CHAMFERD
 40
0.0
  9
$SKPOLY
 70
     0
  9
$TDCREATE
 40
2457788.428923611
  9
$TDUCREATE
 40
2457788.428923611
  9
$TDUPDATE
 40
2457788.429389271
  9
$TDUUPDATE
 40
2457788.429389271
  9
$TDINDWG
 40
0.0003658102
  9
$TDUSRTIMER
 40
0.0003658102
  9
$USRTIMER
 70
     1
  9
$ANGBASE
 50
0.0
  9
$ANGDIR
 70
     0
  9
$PDMODE
 70
     0
  9
$PDSIZE
 40
0.0
  9
$PLINEWID
 40
0.0
  9
$SPLFRAME
 70
     0
  9
$SPLINETYPE
 70
     6
  9
$SPLINESEGS
 70
     8
  9
$HANDSEED
  5
153
  9
$SURFTAB1
 70
     6
  9
$SURFTAB2
 70
     6
  9
$SURFTYPE
 70
     6
  9
$SURFU
 70
     6
  9
$SURFV
 70
     6
  9
$UCSBASE
  2

  9
$UCSNAME
  2

  9
$UCSORG
 10
0.0
 20
0.0
 30
0.0
  9
$UCSXDIR
 10
1.0
 20
0.0
 30
0.0
  9
$UCSYDIR
 10
0.0
 20
1.0
 30
0.0
  9
$UCSORTHOREF
  2

  9
$UCSORTHOVIEW
 70
     0
  9
$UCSORGTOP
 10
0.0
 20
0.0
 30
0.0
  9
$UCSORGBOTTOM
 10
0.0
 20
0.0
 30
0.0
  9
$UCSORGLEFT
 10
0.0
 20
0.0
 30
0.0
  9
$UCSORGRIGHT
 10
0.0
 20
0.0
 30
0.0
  9
$UCSORGFRONT
 10
0.0
 20
0.0
 30
0.0
  9
$UCSORGBACK
 10
0.0
 20
0.0
 30
0.0
  9
$PUCSBASE
  2

  9
$PUCSNAME
  2

  9
$PUCSORG
 10
0.0
 20
0.0
 30
0.0
  9
$PUCSXDIR
 10
1.0
 20
0.0
 30
0.0
  9
$PUCSYDIR
 10
0.0
 20
1.0
 30
0.0
  9
$PUCSORTHOREF
  2

  9
$PUCSORTHOVIEW
 70
     0
  9
$PUCSORGTOP
 10
0.0
 20
0.0
 30
0.0
  9
$PUCSORGBOTTOM
 10
0.0
 20
0.0
 30
0.0
  9
$PUCSORGLEFT
 10
0.0
 20
0.0
 30
0.0
  9
$PUCSORGRIGHT
 10
0.0
 20
0.0
 30
0.0
  9
$PUCSORGFRONT
 10
0.0
 20
0.0
 30
0.0
  9
$PUCSORGBACK
 10
0.0
 20
0.0
 30
0.0
  9
$USERI1
 70
     0
  9
$USERI2
 70
     0
  9
$USERI3
 70
     0
  9
$USERI4
 70
     0
  9
$USERI5
 70
     0
  9
$USERR1
 40
0.0
  9
$USERR2
 40
0.0
  9
$USERR3
 40
0.0
  9
$USERR4
 40
0.0
  9
$USERR5
 40
0.0
  9
$WORLDVIEW
 70
     1
  9
$SHADEDGE
 70
     3
  9
$SHADEDIF
 70
    70
  9
$TILEMODE
 70
     1
  9
$MAXACTVP
 70
    64
  9
$PINSBASE
 10
0.0
 20
0.0
 30
0.0
  9
$PLIMCHECK
 70
     0
  9
$PEXTMIN
 10
1.000000000000000E+20
 20
1.000000000000000E+20
 30
1.000000000000000E+20
  9
$PEXTMAX
 10
-1.000000000000000E+20
 20
-1.000000000000000E+20
 30
-1.000000000000000E+20
  9
$PLIMMIN
 10
0.0
 20
0.0
  9
$PLIMMAX
 10
12.0
 20
9.0
  9
$UNITMODE
 70
     0
  9
$VISRETAIN
 70
     1
  9
$PLINEGEN
 70
     0
  9
$PSLTSCALE
 70
     1
  9
$TREEDEPTH
 70
  3020
  9
$CMLSTYLE
  2
Standard
  9
$CMLJUST
 70
     0
  9
$CMLSCALE
 40
1.0
  9
$PROXYGRAPHICS
 70
     1
  9
$MEASUREMENT
 70
     0
  9
$CELWEIGHT
370
    -1
  9
$ENDCAPS
280
     0
  9
$JOINSTYLE
280
     0
  9
$LWDISPLAY
290
     0
  9
$INSUNITS
 70
     4
  9
$HYPERLINKBASE
  1

  9
$STYLESHEET
  1

  9
$XEDIT
290
     1
  9
$CEPSNTYPE
380
     0
  9
$PSTYLEMODE
290
     1
  9
$FINGERPRINTGUID
  2
{200E4F6F-4108-46C7-AA47-F795C4F02968}
  9
$VERSIONGUID
  2
{3AA11AB1-9A4B-DC41-8DA2-8A8A1A53BED4}
  9
$EXTNAMES
290
     1
  9
$PSVPSCALE
 40
0.0
  9
$OLESTARTUP
290
     0
  9
$SORTENTS
280
   127
  9
$INDEXCTL
280
     0
  9
$HIDETEXT
280
     1
  9
$XCLIPFRAME
280
     2
  9
$HALOGAP
280
     0
  9
$OBSCOLOR
 70
   257
  9
$OBSLTYPE
280
     0
  9
$INTERSECTIONDISPLAY
280
     0
  9
$INTERSECTIONCOLOR
 70
   257
  9
$DIMASSOC
280
     2
  9
$PROJECTNAME
  1

  9
$CAMERADISPLAY
290
     0
  9
$LENSLENGTH
 40
50.0
  9
$CAMERAHEIGHT
 40
0.0
  9
$STEPSPERSEC
 40
2.0
  9
$STEPSIZE
 40
6.0
  9
$3DDWFPREC
 40
2.0
  9
$PSOLWIDTH
 40
0.25
  9
$PSOLHEIGHT
 40
4.0
  9
$LOFTANG1
 40
1.570796326794896
  9
$LOFTANG2
 40
1.570796326794896
  9
$LOFTMAG1
 40
0.0
  9
$LOFTMAG2
 40
0.0
  9
$LOFTPARAM
 70
     7
  9
$LOFTNORMALS
280
     1
  9
$LATITUDE
 40
37.795
  9
$LONGITUDE
 40
-122.394
  9
$NORTHDIRECTION
 40
0.0
  9
$TIMEZONE
 70
 -8000
  9
$LIGHTGLYPHDISPLAY
280
     1
  9
$TILEMODELIGHTSYNCH
280
     1
  9
$CMATERIAL
347
44
  9
$SOLIDHIST
280
     0
  9
$SHOWHIST
280
     1
  9
$DWFFRAME
280
     2
  9
$DGNFRAME
280
     0
  9
$REALWORLDSCALE
290
     1
  9
$INTERFERECOLOR
 62
     1
  9
$INTERFEREOBJVS
345
33
  9
$INTERFEREVPVS
346
30
  9
$CSHADOW
280
     0
  9
$SHADOWPLANELOCATION
 40
0.0
  0
ENDSEC
  0
SECTION
  2
CLASSES
  0
CLASS
  1
ACDBDICTIONARYWDFLT
  2
AcDbDictionaryWithDefault
  3
ObjectDBX Classes
 90
        0
 91
        1
280
     0
281
     0
  0
CLASS
  1
VISUALSTYLE
  2
AcDbVisualStyle
  3
ObjectDBX Classes
 90
     4095
 91
       24
280
     0
281
     0
  0
CLASS
  1
MATERIAL
  2
AcDbMaterial
  3
ObjectDBX Classes
 90
     1153
 91
        3
280
     0
281
     0
  0
CLASS
  1
SCALE
  2
AcDbScale
  3
ObjectDBX Classes
 90
     1153
 91
       33
280
     0
281
     0
  0
CLASS
  1
TABLESTYLE
  2
AcDbTableStyle
  3
ObjectDBX Classes
 90
     4095
 91
        1
280
     0
281
     0
  0
CLASS
  1
MLEADERSTYLE
  2
AcDbMLeaderStyle
  3
ACDB_MLEADERSTYLE_CLASS
 90
     4095
 91
        1
280
     0
281
     0
  0
CLASS
  1
SUN
  2
AcDbSun
  3
SCENEOE
 90
     1153
 91
        1
280
     0
281
     0
  0
CLASS
  1
DICTIONARYVAR
  2
AcDbDictionaryVar
  3
ObjectDBX Classes
 90
        0
 91
       15
280
     0
281
     0
  0
CLASS
  1
CELLSTYLEMAP
  2
AcDbCellStyleMap
  3
ObjectDBX Classes
 90
     1152
 91
        2
280
     0
281
     0
  0
CLASS
  1
ACDBSECTIONVIEWSTYLE
  2
AcDbSectionViewStyle
  3
ObjectDBX Classes
 90
     1025
 91
        1
280
     0
281
     0
  0
CLASS
  1
ACDBDETAILVIEWSTYLE
  2
AcDbDetailViewStyle
  3
ObjectDBX Classes
 90
     1025
 91
        1
280
     0
281
     0
  0
ENDSEC
  0
SECTION
  2
TABLES
  0
TABLE
  2
VPORT
  5
8
102
{ACAD_XDICTIONARY
360
D8
102
}
330
0
100
AcDbSymbolTable
 70
     1
  0
VPORT
  5
29
330
8
100
AcDbSymbolTableRecord
100
AcDbViewportTableRecord
  2
*Active
 70
     0
 10
0.0
 20
0.0
 11
1.0
 21
1.0
 12
695.9451835655027
 22
326.2808326120041
 13
0.0
 23
0.0
 14
0.5
 24
0.5
 15
0.5
 25
0.5
 16
0.0
 26
0.0
 36
1.0
 17
0.0
 27
0.0
 37
0.0
 40
1225.647962074872
 41
1.74921875
 42
50.0
 43
0.0
 44
0.0
 50
0.0
 51
0.0
 71
     0
 72
   100
 73
     1
 74
     3
 75
     0
 76
     0
 77
     0
 78
     0
281
     0
 65
     1
110
0.0
120
0.0
130
0.0
111
1.0
121
0.0
131
0.0
112
0.0
122
1.0
132
0.0
 79
     0
146
0.0
348
2F
 60
     3
 61
     5
292
     1
282
     1
141
0.0
142
0.0
 63
   250
421
  3355443
361
6D
1001
ACAD_NAV_VCDISPLAY
1070
     3
  0
ENDTAB
  0
TABLE
  2
LTYPE
  5
5
330
0
100
AcDbSymbolTable
 70
     1
  0
LTYPE
  5
14
330
5
100
AcDbSymbolTableRecord
100
AcDbLinetypeTableRecord
  2
ByBlock
 70
     0
  3

 72
    65
 73
     0
 40
0.0
  0
LTYPE
  5
15
330
5
100
AcDbSymbolTableRecord
100
AcDbLinetypeTableRecord
  2
ByLayer
 70
     0
  3

 72
    65
 73
     0
 40
0.0
  0
LTYPE
  5
16
330
5
100
AcDbSymbolTableRecord
100
AcDbLinetypeTableRecord
  2
Continuous
 70
     0
  3
Solid line
 72
    65
 73
     0
 40
0.0
  0
ENDTAB
  0
TABLE
  2
LAYER
  5
2
102
{ACAD_XDICTIONARY
360
130
102
}
330
0
100
AcDbSymbolTable
 70
     3
  0
LAYER
  5
10
102
{ACAD_XDICTIONARY
360
127
102
}
330
2
100
AcDbSymbolTableRecord
100
AcDbLayerTableRecord
  2
0
 70
     0
 62
     7
  6
Continuous
370
    -3
390
F
347
46
348
0
  0
LAYER
  5
6E
102
{ACAD_XDICTIONARY
360
129
102
}
330
2
100
AcDbSymbolTableRecord
100
AcDbLayerTableRecord
  2
Bounding Box
 70
     0
 62
     1
  6
Continuous
370
    -3
390
F
347
46
348
0
  0
LAYER
  5
81
102
{ACAD_XDICTIONARY
360
12B
102
}
330
2
100
AcDbSymbolTableRecord
100
AcDbLayerTableRecord
  2
Default
 70
     0
 62
     6
  6
Continuous
370
    -3
390
F
347
46
348
0
  0
ENDTAB
  0
TABLE
  2
STYLE
  5
3
330
0
100
AcDbSymbolTable
 70
     1
  0
STYLE
  5
11
330
3
100
AcDbSymbolTableRecord
100
AcDbTextStyleTableRecord
  2
Standard
 70
     0
 40
0.0
 41
1.0
 50
0.0
 71
     0
 42
0.2
  3
txt
  4

  0
ENDTAB
  0
TABLE
  2
VIEW
  5
6
330
0
100
AcDbSymbolTable
 70
     2
  0
ENDTAB
  0
TABLE
  2
UCS
  5
7
330
0
100
AcDbSymbolTable
 70
     0
  0
ENDTAB
  0
TABLE
  2
APPID
  5
9
330
0
100
AcDbSymbolTable
 70
     3
  0
APPID
  5
12
330
9
100
AcDbSymbolTableRecord
100
AcDbRegAppTableRecord
  2
ACAD
 70
     0
  0
APPID
  5
117
330
9
100
AcDbSymbolTableRecord
100
AcDbRegAppTableRecord
  2
ACAD_MLEADERVER
 70
     0
  0
APPID
  5
136
330
9
100
AcDbSymbolTableRecord
100
AcDbRegAppTableRecord
  2
ACAD_NAV_VCDISPLAY
 70
     0
  0
ENDTAB
  0
TABLE
  2
DIMSTYLE
  5
A
330
0
100
AcDbSymbolTable
 70
     1
100
AcDbDimStyleTable
 71
     0
  0
DIMSTYLE
105
27
330
A
100
AcDbSymbolTableRecord
100
AcDbDimStyleTableRecord
  2
Standard
 70
     0
340
11
  0
ENDTAB
  0
TABLE
  2
BLOCK_RECORD
  5
1
330
0
100
AcDbSymbolTable
 70
     1
  0
BLOCK_RECORD
  5
1F
330
1
100
AcDbSymbolTableRecord
100
AcDbBlockTableRecord
  2
*Model_Space
340
22
 70
     0
280
     1
281
     0
  0
BLOCK_RECORD
  5
1B
330
1
100
AcDbSymbolTableRecord
100
AcDbBlockTableRecord
  2
*Paper_Space
340
1E
 70
     0
280
     1
281
     0
  0
BLOCK_RECORD
  5
23
330
1
100
AcDbSymbolTableRecord
100
AcDbBlockTableRecord
  2
*Paper_Space0
340
26
 70
     0
280
     1
281
     0
  0
ENDTAB
  0
ENDSEC
  0
SECTION
  2
BLOCKS
  0
BLOCK
  5
20
330
1F
100
AcDbEntity
  8
0
100
AcDbBlockBegin
  2
*Model_Space
 70
     0
 10
0.0
 20
0.0
 30
0.0
  3
*Model_Space
  1

  0
ENDBLK
  5
21
330
1F
100
AcDbEntity
  8
0
100
AcDbBlockEnd
  0
BLOCK
  5
1C
330
1B
100
AcDbEntity
 67
     1
  8
0
100
AcDbBlockBegin
  2
*Paper_Space
 70
     0
 10
0.0
 20
0.0
 30
0.0
  3
*Paper_Space
  1

  0
ENDBLK
  5
1D
330
1B
100
AcDbEntity
 67
     1
  8
0
100
AcDbBlockEnd
  0
BLOCK
  5
24
330
23
100
AcDbEntity
 67
     1
  8
0
100
AcDbBlockBegin
  2
*Paper_Space0
 70
     0
 10
0.0
 20
0.0
 30
0.0
  3
*Paper_Space0
  1

  0
ENDBLK
  5
25
330
23
100
AcDbEntity
 67
     1
  8
0
100
AcDbBlockEnd
  0
ENDSEC
  0
SECTION
  2
ENTITIES
  0
POLYLINE
  5
6F
330
1F
100
AcDbEntity
  8
Bounding Box
100
AcDb2dPolyline
 66
     1
 10
0.0
 20
0.0
 30
0.0
 70
     1
  0
VERTEX
  5
70
330
6F
100
AcDbEntity
  8
Bounding Box
100
AcDbVertex
100
AcDb2dVertex
 10
750.8623153090804
 20
-0.0000151244555206
 30
0.0
  0
VERTEX
  5
71
330
6F
100
AcDbEntity
  8
Bounding Box
100
AcDbVertex
100
AcDb2dVertex
 10
1300.861068692483
 20
-0.0000151244555206
 30
0.0
  0
VERTEX
  5
72
330
6F
100
AcDbEntity
  8
Bounding Box
100
AcDbVertex
100
AcDb2dVertex
 10
1300.861068692483
 20
325.0000142039205
 30
0.0
  0
VERTEX
  5
73
330
6F
100
AcDbEntity
  8
Bounding Box
100
AcDbVertex
100
AcDb2dVertex
 10
750.8623153090804
 20
325.0000142039205
 30
0.0
  0
SEQEND
  5
74
330
6F
100
AcDbEntity
  8
Bounding Box
  0
POLYLINE
  5
75
330
1F
100
AcDbEntity
  8
Bounding Box
100
AcDb2dPolyline
 66
     1
 10
0.0
 20
0.0
 30
0.0
 70
     1
  0
VERTEX
  5
76
330
75
100
AcDbEntity
  8
Bounding Box
100
AcDbVertex
100
AcDb2dVertex
 10
750.8610460032323
 20
525.8610454524675
 30
0.0
  0
VERTEX
  5
77
330
75
100
AcDbEntity
  8
Bounding Box
100
AcDbVertex
100
AcDb2dVertex
 10
1300.861034198577
 20
525.8610454524675
 30
0.0
  0
VERTEX
  5
78
330
75
100
AcDbEntity
  8
Bounding Box
100
AcDbVertex
100
AcDb2dVertex
 10
1300.861034198577
 20
665.8612184184878
 30
0.0
  0
VERTEX
  5
79
330
75
100
AcDbEntity
  8
Bounding Box
100
AcDbVertex
100
AcDb2dVertex
 10
750.8610460032323
 20
665.8612184184878
 30
0.0
  0
SEQEND
  5
7A
330
75
100
AcDbEntity
  8
Bounding Box
  0
POLYLINE
  5
7B
330
1F
100
AcDbEntity
  8
Bounding Box
100
AcDb2dPolyline
 66
     1
 10
0.0
 20
0.0
 30
0.0
 70
     1
  0
VERTEX
  5
7C
330
7B
100
AcDbEntity
  8
Bounding Box
100
AcDbVertex
100
AcDb2dVertex
 10
0.0000000000000853
 20
525.8610454524675
 30
0.0
  0
VERTEX
  5
7D
330
7B
100
AcDbEntity
  8
Bounding Box
100
AcDbVertex
100
AcDb2dVertex
 10
324.999999449086
 20
525.8610454524675
 30
0.0
  0
VERTEX
  5
7E
330
7B
100
AcDbEntity
  8
Bounding Box
100
AcDbVertex
100
AcDb2dVertex
 10
324.999999449086
 20
665.8610432850506
 30
0.0
  0
VERTEX
  5
7F
330
7B
100
AcDbEntity
  8
Bounding Box
100
AcDbVertex
100
AcDb2dVertex
 10
0.0000000000000853
 20
665.8610432850506
 30
0.0
  0
SEQEND
  5
80
330
7B
100
AcDbEntity
  8
Bounding Box
  0
SPLINE
  5
82
330
1F
100
AcDbEntity
  8
Default
100
AcDbSpline
210
0.0
220
0.0
230
1.0
 70
    12
 71
     3
 72
     8
 73
     4
 74
     0
 42
0.000000001
 43
0.0000000001
 40
677.8281724909198
 40
677.8281724909198
 40
677.8281724909198
 40
677.8281724909198
 40
679.2929308002831
 40
679.2929308002831
 40
679.2929308002831
 40
679.2929308002831
 10
285.9002420517781
 20
541.7910064362997
 30
0.0
 41
1.0
 10
285.9004170472665
 20
541.7912456627518
 30
0.0
 41
1.0
 10
285.9005033162095
 20
541.7913626362004
 30
0.0
 41
1.0
 10
285.9005033165282
 20
541.7913626368069
 30
0.0
 41
1.0
  0
SPLINE
  5
83
330
1F
100
AcDbEntity
  8
Default
100
AcDbSpline
210
0.0
220
0.0
230
1.0
 70
     8
 71
     3
 72
    17
 73
    13
 74
     0
 42
0.000000001
 43
0.0000000001
 40
679.2929308002831
 40
679.2929308002831
 40
679.2929308002831
 40
679.2929308002831
 40
694.0473263490651
 40
708.4784849724216
 40
723.5052121689457
 40
739.020257711095
 40
754.8721509865552
 40
770.0328152813454
 40
778.1125003749657
 40
785.9180172189004
 40
793.42448917506
 40
801.3049671896016
 40
801.3049671896016
 40
801.3049671896016
 40
801.3049671896016
 10
285.9005033165282
 20
541.7913626368069
 30
0.0
 10
288.7143453389503
 20
545.8250592578255
 30
0.0
 10
293.9795207519617
 20
554.0134804517922
 30
0.0
 10
301.0497952712099
 20
566.9542336619866
 30
0.0
 10
307.3187106181447
 20
580.581223046635
 30
0.0
 10
312.8143539446214
 20
595.0458017232794
 30
0.0
 10
317.3443024717255
 20
609.8875907117587
 30
0.0
 10
320.3465563325471
 20
622.5741633162165
 30
0.0
 10
322.2516011919067
 20
632.747354649058
 30
0.0
 10
323.4367482429771
 20
640.4550113669978
 30
0.0
 10
324.3677097122621
 20
648.1305504318203
 30
0.0
 10
324.8167162441708
 20
653.2406127920387
 30
0.0
 10
324.999999449086
 20
655.8610434398674
 30
0.0
  0
SPLINE
  5
84
330
1F
100
AcDbEntity
  8
Default
100
AcDbSpline
210
0.0
220
0.0
230
1.0
 70
    24
 71
     2
 72
     6
 73
     3
 74
     0
 42
0.000000001
 43
0.0000000001
 40
801.3049671896016
 40
801.3049671896016
 40
801.3049671896016
 40
808.3049670812295
 40
808.3049670812295
 40
808.3049670812295
 10
324.999999449086
 20
655.8610434398674
 30
0.0
 10
324.999999449086
 20
659.3610433856813
 30
0.0
 10
324.999999449086
 20
662.8610433314952
 30
0.0
  0
SPLINE
  5
85
330
1F
100
AcDbEntity
  8
Default
100
AcDbSpline
210
0.0
220
0.0
230
1.0
 70
    12
 71
     5
 72
    14
 73
     8
 74
     0
 42
0.000000001
 43
0.0000000001
 40
808.3049670812295
 40
808.3049670812295
 40
808.3049670812295
 40
808.3049670812295
 40
808.3049670812295
 40
808.3049670812295
 40
811.1751405119882
 40
811.1751405119882
 40
813.5732478402447
 40
813.5732478402447
 40
813.5732478402447
 40
813.5732478402447
 40
813.5732478402447
 40
813.5732478402447
 10
324.999999449086
 20
662.8610433314952
 30
0.0
 41
1.0
 10
324.999999449086
 20
663.3656374782808
 30
0.0
 41
1.0
 10
324.999999449086
 20
663.8702316250662
 30
0.0
 41
1.0
 10
324.8026107701501
 20
664.890905784426
 30
0.0
 41
1.0
 10
324.2274314076092
 20
665.5337892653887
 30
0.0
 41
1.0
 10
323.2744613614631
 20
665.7988820679547
 30
0.0
 41
1.0
 10
322.8421245023319
 20
665.8435106001292
 30
0.0
 41
1.0
 10
322.416506022835
 20
665.8565346683224
 30
0.0
 41
1.0
  0
SPLINE
  5
86
330
1F
100
AcDbEntity
  8
Default
100
AcDbSpline
210
0.0
220
0.0
230
1.0
 70
    12
 71
     5
 72
    12
 73
     6
 74
     0
 42
0.000000001
 43
0.0000000001
 40
813.5732478402447
 40
813.5732478402447
 40
813.5732478402447
 40
813.5732478402447
 40
813.5732478402447
 40
813.5732478402447
 40
813.9955525214091
 40
813.9955525214091
 40
813.9955525214091
 40
813.9955525214091
 40
813.9955525214091
 40
813.9955525214091
 10
322.416506022835
 20
665.8565346683224
 30
0.0
 41
1.0
 10
322.3315592708871
 20
665.8591297324765
 30
0.0
 41
1.0
 10
322.2468809877088
 20
665.8605449239233
 30
0.0
 41
1.0
 10
322.1625132924196
 20
665.8610432213531
 30
0.0
 41
1.0
 10
322.0783839108949
 20
665.861043285045
 30
0.0
 41
1.0
 10
321.9942545598276
 20
665.8610432850236
 30
0.0
 41
1.0
  0
SPLINE
  5
87
330
1F
100
AcDbEntity
  8
Default
100
AcDbSpline
210
0.0
220
0.0
230
1.0
 70
    24
 71
     2
 72
     6
 73
     3
 74
     0
 42
0.000000001
 43
0.0000000001
 40
813.9955525214091
 40
813.9955525214091
 40
813.9955525214091
 40
973.4898073566874
 40
973.4898073566874
 40
973.4898073566874
 10
321.9942545598276
 20
665.8610432850236
 30
0.0
 10
242.2471271421853
 20
665.861043284996
 30
0.0
 10
162.499999724543
 20
665.8610432849684
 30
0.0
  0
SPLINE
  5
88
330
1F
100
AcDbEntity
  8
Default
100
AcDbSpline
210
0.0
220
0.0
230
1.0
 70
    24
 71
     2
 72
     6
 73
     3
 74
     0
 42
0.000000001
 43
0.0000000001
 40
973.4898073566874
 40
973.4898073566874
 40
973.4898073566874
 40
1132.98398794212
 40
1132.98398794212
 40
1132.98398794212
 10
162.499999724543
 20
665.8610432849684
 30
0.0
 10
82.75289535046924
 20
665.8610432850096
 30
0.0
 10
3.005790976395468
 20
665.8610432850506
 30
0.0
  0
SPLINE
  5
89
330
1F
100
AcDbEntity
  8
Default
100
AcDbSpline
210
0.0
220
0.0
230
1.0
 70
    12
 71
     5
 72
    12
 73
     6
 74
     0
 42
0.000000001
 43
0.0000000001
 40
1132.98398794212
 40
1132.98398794212
 40
1132.98398794212
 40
1132.98398794212
 40
1132.98398794212
 40
1132.98398794212
 40
1133.405906339062
 40
1133.405906339062
 40
1133.405906339062
 40
1133.405906339062
 40
1133.405906339062
 40
1133.405906339062
 10
3.005790976395468
 20
665.8610432850506
 30
0.0
 41
1.0
 10
2.921709609632087
 20
665.8610432850505
 30
0.0
 41
1.0
 10
2.837656405568409
 20
665.8610432850478
 30
0.0
 41
1.0
 10
2.753365550536853
 20
665.8605464597176
 30
0.0
 41
1.0
 10
2.668764804587798
 20
665.8591352065731
 30
0.0
 41
1.0
 10
2.583895996615146
 20
665.856547218362
 30
0.0
 41
1.0
  0
SPLINE
  5
8A
330
1F
100
AcDbEntity
  8
Default
100
AcDbSpline
210
0.0
220
0.0
230
1.0
 70
    12
 71
     5
 72
    14
 73
     8
 74
     0
 42
0.000000001
 43
0.0000000001
 40
1133.405906339062
 40
1133.405906339062
 40
1133.405906339062
 40
1133.405906339062
 40
1133.405906339062
 40
1133.405906339062
 40
1135.804467382371
 40
1135.804467382371
 40
1138.674640813129
 40
1138.674640813129
 40
1138.674640813129
 40
1138.674640813129
 40
1138.674640813129
 40
1138.674640813129
 10
2.583895996615146
 20
665.856547218362
 30
0.0
 41
1.0
 10
2.158202134032028
 20
665.8435443582082
 30
0.0
 41
1.0
 10
1.72578431118387
 20
665.7989505505853
 30
0.0
 41
1.0
 10
0.7726671155116224
 20
665.533899995484
 30
0.0
 41
1.0
 10
0.1974056784503208
 20
664.8909936869809
 30
0.0
 41
1.0
 10
0.0000000000001421
 20
663.8702316250755
 30
0.0
 41
1.0
 10
0.0000000000000853
 20
663.3656374782853
 30
0.0
 41
1.0
 10
0.0000000000000853
 20
662.8610433314952
 30
0.0
 41
1.0
  0
SPLINE
  5
8B
330
1F
100
AcDbEntity
  8
Default
100
AcDbSpline
210
0.0
220
0.0
230
1.0
 70
    24
 71
     2
 72
     6
 73
     3
 74
     0
 42
0.000000001
 43
0.0000000001
 40
1138.674640813129
 40
1138.674640813129
 40
1138.674640813129
 40
1145.674640704757
 40
1145.674640704757
 40
1145.674640704757
 10
0.0000000000000853
 20
662.8610433314952
 30
0.0
 10
0.0000000000001137
 20
659.3610433856813
 30
0.0
 10
0.0000000000001421
 20
655.8610434398675
 30
0.0
  0
SPLINE
  5
8C
330
1F
100
AcDbEntity
  8
Default
100
AcDbSpline
210
0.0
220
0.0
230
1.0
 70
     8
 71
     3
 72
    17
 73
    13
 74
     0
 42
0.000000001
 43
0.0000000001
 40
1145.674640704757
 40
1145.674640704757
 40
1145.674640704757
 40
1145.674640704757
 40
1153.555118946522
 40
1161.061591119121
 40
1168.867108188118
 40
1176.946793514706
 40
1192.107458246634
 40
1207.959351979164
 40
1223.474397968668
 40
1238.501125598467
 40
1252.932284637925
 40
1267.686677094406
 40
1267.686677094406
 40
1267.686677094406
 40
1267.686677094406
 10
0.0000000000001421
 20
655.8610434398675
 30
0.0
 10
0.1832832049151419
 20
653.2406127920316
 30
0.0
 10
0.6322897368242359
 20
648.1305504317979
 30
0.0
 10
1.563251206109482
 20
640.4550113669547
 30
0.0
 10
2.748398257179211
 20
632.7473546489941
 30
0.0
 10
4.653443116539202
 20
622.574163316121
 30
0.0
 10
7.655696977360948
 20
609.8875907116255
 30
0.0
 10
12.18564550446555
 20
595.045801723102
 30
0.0
 10
17.68128883094231
 20
580.5812230464108
 30
0.0
 10
23.95020417787621
 20
566.9542336617222
 30
0.0
 10
31.02047813458299
 20
554.0134814811069
 30
0.0
 10
36.28565284091831
 20
545.8250612313828
 30
0.0
 10
39.09949613255916
 20
541.791362636631
 30
0.0
  0
SPLINE
  5
8D
330
1F
100
AcDbEntity
  8
Default
100
AcDbSpline
210
0.0
220
0.0
230
1.0
 70
    12
 71
     3
 72
     8
 73
     4
 74
     0
 42
0.000000001
 43
0.0000000001
 40
1267.686677094406
 40
1267.686677094406
 40
1267.686677094406
 40
1267.686677094406
 40
1269.151426288271
 40
1269.151426288271
 40
1269.151426288271
 40
1269.151426288271
 10
39.09949613255916
 20
541.791362636631
 30
0.0
 41
1.0
 10
39.09949614471769
 20
541.7913626201449
 30
0.0
 41
1.0
 10
39.09958241440484
 20
541.791245646799
 30
0.0
 41
1.0
 10
39.0997573972245
 20
541.7910064362448
 30
0.0
 41
1.0
  0
SPLINE
  5
8E
330
1F
100
AcDbEntity
  8
Default
100
AcDbSpline
210
0.0
220
0.0
230
1.0
 70
    12
 71
     3
 72
     8
 73
     4
 74
     0
 42
0.000000001
 43
0.0000000001
 40
1269.151426288271
 40
1269.151426288271
 40
1269.151426288271
 40
1269.151426288271
 40
1269.276423510915
 40
1269.276423510915
 40
1269.276423510915
 40
1269.276423510915
 10
39.0997573972245
 20
541.7910064362448
 30
0.0
 41
1.0
 10
42.89296283164254
 20
536.3532675529483
 30
0.0
 41
1.0
 10
47.01834244124373
 20
531.0272080488295
 30
0.0
 41
1.0
 10
51.49999991270124
 20
525.8610454524675
 30
0.0
 41
1.0
  0
SPLINE
  5
8F
330
1F
100
AcDbEntity
  8
Default
100
AcDbSpline
210
0.0
220
0.0
230
1.0
 70
    24
 71
     2
 72
     6
 73
     3
 74
     0
 42
0.000000001
 43
0.0000000001
 40
1269.276423510915
 40
1269.276423510915
 40
1269.276423510915
 40
1380.276423317051
 40
1380.276423317051
 40
1380.276423317051
 10
51.49999991270124
 20
525.8610454524675
 30
0.0
 10
106.9999998157688
 20
525.8610454525684
 30
0.0
 10
162.4999997188364
 20
525.8610454526692
 30
0.0
  0
SPLINE
  5
90
330
1F
100
AcDbEntity
  8
Default
100
AcDbSpline
210
0.0
220
0.0
230
1.0
 70
    24
 71
     2
 72
     6
 73
     3
 74
     0
 42
0.000000001
 43
0.0000000001
 40
1380.276423317051
 40
1380.276423317051
 40
1380.276423317051
 40
1491.276423134599
 40
1491.276423134599
 40
1491.276423134599
 10
162.4999997188364
 20
525.8610454526692
 30
0.0
 10
217.9999996276106
 20
525.8610454527707
 30
0.0
 10
273.4999995363848
 20
525.8610454528723
 30
0.0
  0
SPLINE
  5
91
330
1F
100
AcDbEntity
  8
Default
100
AcDbSpline
210
0.0
220
0.0
230
1.0
 70
    12
 71
     3
 72
     8
 73
     4
 74
     0
 42
0.000000001
 43
0.0000000001
 40
1491.276423134599
 40
1491.276423134599
 40
1491.276423134599
 40
1491.276423134599
 40
1491.401420331164
 40
1491.401420331164
 40
1491.401420331164
 40
1491.401420331164
 10
273.4999995363848
 20
525.8610454528723
 30
0.0
 41
1.0
 10
277.9816589748847
 20
531.0272105887786
 30
0.0
 41
1.0
 10
282.1070375217177
 20
536.3532688496478
 30
0.0
 41
1.0
 10
285.9002420517781
 20
541.7910064362997
 30
0.0
 41
1.0
  0
SPLINE
  5
92
330
1F
100
AcDbEntity
  8
Default
100
AcDbSpline
210
0.0
220
0.0
230
1.0
 70
    24
 71
     2
 72
     6
 73
     3
 74
     0
 42
0.000000001
 43
0.0000000001
 40
0.0
 40
0.0
 40
0.0
 40
6.999884117977503
 40
6.999884117977503
 40
6.999884117977503
 10
1300.860998573769
 20
655.8610434398675
 30
0.0
 10
1300.861011570683
 20
659.3610012245586
 30
0.0
 10
1300.861024567596
 20
662.8609590092497
 30
0.0
  0
SPLINE
  5
93
330
1F
100
AcDbEntity
  8
Default
100
AcDbSpline
210
0.0
220
0.0
230
1.0
 70
     8
 71
     3
 72
    16
 73
    12
 74
     0
 42
0.000000001
 43
0.0000000001
 40
6.999884117977503
 40
6.999884117977503
 40
6.999884117977503
 40
6.999884117977503
 40
7.427290557846006
 40
7.747481016243958
 40
8.341525670372966
 40
8.873171825859182
 40
9.366793011573239
 40
9.838024860811717
 40
10.35639953417886
 40
10.92851164954014
 40
11.57735750101017
 40
11.57735750101017
 40
11.57735750101017
 40
11.57735750101017
 10
1300.861024567596
 20
662.8609590092497
 30
0.0
 10
1300.86109915798
 20
663.0034145307225
 30
0.0
 10
1300.860662546004
 20
663.2527758905364
 30
0.0
 10
1300.83604628648
 20
663.6993251045638
 30
0.0
 10
1300.762311728761
 20
664.177193859663
 30
0.0
 10
1300.584073777762
 20
664.6895143295112
 30
0.0
 10
1300.314168333262
 20
665.1142237773099
 30
0.0
 10
1299.939799594667
 20
665.444664060191
 30
0.0
 10
1299.469238569976
 20
665.6760401284778
 30
0.0
 10
1298.904542963951
 20
665.8176396143318
 30
0.0
 10
1298.497696065724
 20
665.8498594615659
 30
0.0
 10
1298.281605527047
 20
665.8564929194653
 30
0.0
  0
SPLINE
  5
94
330
1F
100
AcDbEntity
  8
Default
100
AcDbSpline
210
0.0
220
0.0
230
1.0
 70
    12
 71
     3
 72
     9
 73
     5
 74
     0
 42
0.000000001
 43
0.0000000001
 40
-0.1599090520409945
 40
-0.1599090520409945
 40
-0.1599090520409945
 40
-0.1599090520409945
 40
-0.1399213029629886
 40
-0.1199325453968473
 40
-0.1199325453968473
 40
-0.1199325453968473
 40
-0.1199325453968473
 10
750.8612002322987
 20
655.859967255563
 30
0.0
 41
1.0
 10
751.3584064359896
 20
648.7501592356833
 30
0.0
 41
1.0
 10
753.1195010888492
 20
634.9329258004186
 30
0.0
 41
1.0
 10
756.3610399127902
 20
621.9366503128139
 30
0.0
 41
1.0
 10
758.3387513866125
 20
615.647462613693
 30
0.0
 41
1.0
  0
SPLINE
  5
95
330
1F
100
AcDbEntity
  8
Default
100
AcDbSpline
210
0.0
220
0.0
230
1.0
 70
    12
 71
     3
 72
    15
 73
    11
 74
     0
 42
0.000000001
 43
0.0000000001
 40
-0.1199325453968473
 40
-0.1199325453968473
 40
-0.1199325453968473
 40
-0.1199325453968473
 40
4.815415406750218
 40
4.815415406750218
 40
9.722614672312262
 40
9.722614672312262
 40
19.46126205294526
 40
19.46126205294526
 40
19.46126205294526
 40
35.48996108117564
 40
35.48996108117564
 40
35.48996108117564
 40
35.48996108117564
 10
758.3387513866125
 20
615.647462613693
 30
0.0
 41
1.0
 10
758.8302092705382
 20
614.0846103376291
 30
0.0
 41
1.0
 10
759.3503333793701
 20
612.5144165292413
 30
0.0
 41
1.0
 10
760.4273837732704
 20
609.423973662303
 30
0.0
 41
1.0
 10
760.9896719082939
 20
607.8868303875903
 30
0.0
 41
1.0
 10
762.7353772110504
 20
603.3351556266798
 30
0.0
 41
1.0
 10
763.9874713950519
 20
600.3490771184308
 30
0.0
 41
1.0
 10
765.334103199313
 20
597.3998635848443
 30
0.0
 41
1.0
 10
767.5539940181399
 20
592.5373327144327
 30
0.0
 41
0.9991060748041878
 10
770.0226341425383
 20
587.7962423704901
 30
0.0
 41
0.9991060748041874
 10
772.7334032336893
 20
583.1893070933587
 30
0.0
 41
1.0
  0
POLYLINE
  5
96
330
1F
100
AcDbEntity
  8
Default
100
AcDb2dPolyline
 66
     1
 10
0.0
 20
0.0
 30
0.0
  0
VERTEX
  5
97
330
96
100
AcDbEntity
  8
Default
100
AcDbVertex
100
AcDb2dVertex
 10
772.7334032336893
 20
583.1893070933587
 30
0.0
  0
VERTEX
  5
98
330
96
100
AcDbEntity
  8
Default
100
AcDbVertex
100
AcDb2dVertex
 10
775.2269830824451
 20
579.0978181184768
 30
0.0
  0
SEQEND
  5
99
330
96
100
AcDbEntity
  8
Default
  0
SPLINE
  5
9A
330
1F
100
AcDbEntity
  8
Default
100
AcDbSpline
210
0.0
220
0.0
230
1.0
 70
    12
 71
     2
 72
     6
 73
     3
 74
     0
 42
0.000000001
 43
0.0000000001
 40
40.2814350186714
 40
40.2814350186714
 40
40.2814350186714
 40
54.65269206252662
 40
54.65269206252662
 40
54.65269206252662
 10
775.2269830824451
 20
579.0978181184768
 30
0.0
 41
1.0
 10
779.0645371247579
 20
573.0167694663749
 30
0.0
 41
0.9989452034227412
 10
783.4437808336311
 20
567.3134197243613
 30
0.0
 41
1.0
  0
SPLINE
  5
9B
330
1F
100
AcDbEntity
  8
Default
100
AcDbSpline
210
0.0
220
0.0
230
1.0
 70
    12
 71
     3
 72
    14
 73
    10
 74
     0
 42
0.000000001
 43
0.0000000001
 40
54.65269206252662
 40
54.65269206252662
 40
54.65269206252662
 40
54.65269206252662
 40
57.85217738181922
 40
57.85217738181922
 40
57.85217738181922
 40
77.18384351901374
 40
77.18384351901374
 40
77.18384351901374
 40
83.69297791284827
 40
83.69297791284827
 40
83.69297791284827
 40
83.69297791284827
 10
783.4437808336311
 20
567.3134197243613
 30
0.0
 41
1.0
 10
784.0931646417052
 20
566.4673990963727
 30
0.0
 41
0.9999662224661733
 10
784.7510318300062
 20
565.6279582139656
 30
0.0
 41
0.9999662224661726
 10
785.4173157353004
 20
564.7951821395942
 30
0.0
 41
1.0
 10
789.417377379891
 20
559.7954554597455
 30
0.0
 41
1.0
 10
793.734654573401
 20
555.0164351463194
 30
0.0
 41
1.0
 10
798.3559187739065
 20
550.4619853303601
 30
0.0
 41
1.0
 10
799.9014809400756
 20
548.9390105387449
 30
0.0
 41
0.9998796198701004
 10
801.4757048643026
 20
547.4456808156827
 30
0.0
 41
0.9998796198701015
 10
803.0780220541435
 20
545.9825354415682
 30
0.0
 41
1.0
  0
SPLINE
  5
9C
330
1F
100
AcDbEntity
  8
Default
100
AcDbSpline
210
0.0
220
0.0
230
1.0
 70
    12
 71
     2
 72
     6
 73
     3
 74
     0
 42
0.000000001
 43
0.0000000001
 40
83.69297791284827
 40
83.69297791284827
 40
83.69297791284827
 40
91.89469306516809
 40
91.89469306516809
 40
91.89469306516809
 10
803.0780220541435
 20
545.9825354415682
 30
0.0
 41
1.0
 10
806.1069878954752
 20
543.2169530470104
 30
0.0
 41
0.9997300581730264
 10
809.2611605083043
 20
540.5950661392319
 30
0.0
 41
0.9999999998712816
  0
SPLINE
  5
9D
330
1F
100
AcDbEntity
  8
Default
100
AcDbSpline
210
0.0
220
0.0
230
1.0
 70
    12
 71
     2
 72
     6
 73
     3
 74
     0
 42
0.000000001
 43
0.0000000001
 40
91.89469306516809
 40
91.89469306516809
 40
91.89469306516809
 40
96.85527944071351
 40
96.85527944071351
 40
96.85527944071351
 10
809.2611605083043
 20
540.5950661392319
 30
0.0
 41
0.9999999999555813
 10
811.1685159427512
 20
539.0093118541907
 30
0.0
 41
0.9999068472322102
 10
813.1184438545689
 20
537.4762115059497
 30
0.0
 41
1.0
  0
SPLINE
  5
9E
330
1F
100
AcDbEntity
  8
Default
100
AcDbSpline
210
0.0
220
0.0
230
1.0
 70
    12
 71
     3
 72
     8
 73
     4
 74
     0
 42
0.000000001
 43
0.0000000001
 40
96.85527944071351
 40
96.85527944071351
 40
96.85527944071351
 40
96.85527944071351
 40
96.86693954933947
 40
96.86693954933947
 40
96.86693954933947
 40
96.86693954933947
 10
813.1184438545689
 20
537.4762115059497
 30
0.0
 41
1.0
 10
816.1611154501173
 20
535.0837026645576
 30
0.0
 41
1.0
 10
819.3027256435673
 20
532.7689250144227
 30
0.0
 41
1.0
 10
822.5406508093024
 20
530.5326440636581
 30
0.0
 41
1.0
  0
SPLINE
  5
9F
330
1F
100
AcDbEntity
  8
Default
100
AcDbSpline
210
0.0
220
0.0
230
1.0
 70
    12
 71
     2
 72
     6
 73
     3
 74
     0
 42
0.000000001
 43
0.0000000001
 40
96.86693954933947
 40
96.86693954933947
 40
96.86693954933947
 40
105.3539959812349
 40
105.3539959812349
 40
105.3539959812349
 10
822.5406508093024
 20
530.5326440636581
 30
0.0
 41
0.999999999891534
 10
826.033255738001
 20
528.121274274345
 30
0.0
 41
0.9997725304334498
 10
829.6255197255851
 20
525.861045452569
 30
0.0
 41
0.999999999891534
  0
SPLINE
  5
A0
330
1F
100
AcDbEntity
  8
Default
100
AcDbSpline
210
0.0
220
0.0
230
1.0
 70
    24
 71
     2
 72
     6
 73
     3
 74
     0
 42
0.000000001
 43
0.0000000001
 40
105.3539959812349
 40
105.3539959812349
 40
105.3539959812349
 40
301.5895380301059
 40
301.5895380301059
 40
301.5895380301059
 10
829.6255197255851
 20
525.861045452569
 30
0.0
 10
927.7432907500205
 20
525.8610454525182
 30
0.0
 10
1025.861061774456
 20
525.8610454524675
 30
0.0
  0
SPLINE
  5
A1
330
1F
100
AcDbEntity
  8
Default
100
AcDbSpline
210
0.0
220
0.0
230
1.0
 70
    24
 71
     2
 72
     6
 73
     3
 74
     0
 42
0.000000001
 43
0.0000000001
 40
301.5895380301059
 40
301.5895380301059
 40
301.5895380301059
 40
497.825080078977
 40
497.825080078977
 40
497.825080078977
 10
1025.861061774456
 20
525.8610454524675
 30
0.0
 10
1123.978832798891
 20
525.8610454525684
 30
0.0
 10
1222.096603823327
 20
525.8610454526692
 30
0.0
  0
SPLINE
  5
A2
330
1F
100
AcDbEntity
  8
Default
100
AcDbSpline
210
0.0
220
0.0
230
1.0
 70
    12
 71
     3
 72
     8
 73
     4
 74
     0
 42
0.000000001
 43
0.0000000001
 40
497.825080078977
 40
497.825080078977
 40
497.825080078977
 40
497.825080078977
 40
497.8400628590305
 40
497.8400628590305
 40
497.8400628590305
 40
497.8400628590305
 10
1222.096603823327
 20
525.8610454526692
 30
0.0
 41
1.0
 10
1226.434827368921
 20
528.5915789291128
 30
0.0
 41
1.0
 10
1230.616940332729
 20
531.4527804577872
 30
0.0
 41
1.0
 10
1234.637361923685
 20
534.4430198583629
 30
0.0
 41
1.0
  0
SPLINE
  5
A3
330
1F
100
AcDbEntity
  8
Default
100
AcDbSpline
210
0.0
220
0.0
230
1.0
 70
    12
 71
     3
 72
    20
 73
    16
 74
     0
 42
0.000000001
 43
0.0000000001
 40
497.8400628590305
 40
497.8400628590305
 40
497.8400628590305
 40
497.8400628590305
 40
502.8334010699755
 40
502.8334010699755
 40
502.8334010699755
 40
522.5150809846921
 40
522.5150809846921
 40
522.5150809846921
 40
541.8467474468846
 40
541.8467474468846
 40
541.8467474468846
 40
561.0261471212121
 40
561.0261471212121
 40
561.0261471212121
 40
565.8196102260514
 40
565.8196102260514
 40
565.8196102260514
 40
565.8196102260514
 10
1234.637361923685
 20
534.4430198583629
 30
0.0
 41
1.0
 10
1235.972999977676
 20
535.4363063274765
 30
0.0
 41
0.9999399426706466
 10
1237.295185308154
 20
536.4474309354549
 30
0.0
 41
0.9999399426706464
 10
1238.603679694404
 20
537.4762115059083
 30
0.0
 41
1.0
 10
1243.819689366999
 20
541.5776561959087
 30
0.0
 41
1.0
 10
1248.7449405745
 20
545.9075355144014
 30
0.0
 41
1.0
 10
1253.366204775006
 20
550.4619853303601
 30
0.0
 41
1.0
 10
1257.987468975511
 20
555.0164351463189
 30
0.0
 41
1.0
 10
1262.304746169021
 20
559.7954554597436
 30
0.0
 41
1.0
 10
1266.304807813612
 20
564.7951821395944
 30
0.0
 41
1.0
 10
1270.304869458203
 20
569.7949088194453
 30
0.0
 41
1.0
 10
1273.987715553874
 20
575.015341865722
 30
0.0
 41
1.0
 10
1277.340117558709
 20
580.4526171473858
 30
0.0
 41
1.0
 10
1278.178731926735
 20
581.8127502887034
 30
0.0
 41
0.9999200057986726
 10
1278.996175974595
 20
583.1857111217345
 30
0.0
 41
0.9999200057796004
 10
1279.792254099272
 20
584.5711711506601
 30
0.0
 41
0.9999999999427837
  0
SPLINE
  5
A4
330
1F
100
AcDbEntity
  8
Default
100
AcDbSpline
210
0.0
220
0.0
230
1.0
 70
    12
 71
     2
 72
     6
 73
     3
 74
     0
 42
0.000000001
 43
0.0000000001
 40
565.8196102260514
 40
565.8196102260514
 40
565.8196102260514
 40
577.0412911767916
 40
577.0412911767916
 40
577.0412911767916
 10
1279.792254099272
 20
584.5711711506601
 30
0.0
 41
0.9999999996861703
 10
1282.588765671729
 20
589.4382769173943
 30
0.0
 41
0.999341851663712
 10
1285.025041970334
 20
594.4953238113387
 30
0.0
 41
1.0
  0
POLYLINE
  5
A5
330
1F
100
AcDbEntity
  8
Default
100
AcDb2dPolyline
 66
     1
 10
0.0
 20
0.0
 30
0.0
  0
VERTEX
  5
A6
330
A5
100
AcDbEntity
  8
Default
100
AcDbVertex
100
AcDb2dVertex
 10
1285.025041970334
 20
594.4953238113387
 30
0.0
  0
VERTEX
  5
A7
330
A5
100
AcDbEntity
  8
Default
100
AcDbVertex
100
AcDb2dVertex
 10
1286.3927627587
 20
597.4111055674044
 30
0.0
  0
SEQEND
  5
A8
330
A5
100
AcDbEntity
  8
Default
  0
SPLINE
  5
A9
330
1F
100
AcDbEntity
  8
Default
100
AcDbSpline
210
0.0
220
0.0
230
1.0
 70
    12
 71
     3
 72
     9
 73
     5
 74
     0
 42
0.000000001
 43
0.0000000001
 40
580.2619189733452
 40
580.2619189733452
 40
580.2619189733452
 40
580.2619189733452
 40
580.281896015798
 40
580.3018730534878
 40
580.3018730534878
 40
580.3018730534878
 40
580.3018730534878
 10
1286.3927627587
 20
597.4111055674044
 30
0.0
 41
1.0
 10
1289.07104803996
 20
603.278201188818
 30
0.0
 41
1.0
 10
1293.740272780353
 20
615.438347190751
 30
0.0
 41
1.0
 10
1296.981893162412
 20
628.4349488866316
 30
0.0
 41
1.0
 10
1298.232574517826
 20
635.1385034999223
 30
0.0
 41
1.0
  0
SPLINE
  5
AA
330
1F
100
AcDbEntity
  8
Default
100
AcDbSpline
210
0.0
220
0.0
230
1.0
 70
     8
 71
     3
 72
    11
 73
     7
 74
     0
 42
0.000000001
 43
0.0000000001
 40
580.3018730534878
 40
580.3018730534878
 40
580.3018730534878
 40
580.3018730534878
 40
588.8757621475575
 40
593.3255313798928
 40
595.5358348398244
 40
597.6524887203121
 40
597.6524887203121
 40
597.6524887203121
 40
597.6524887203121
 10
1298.232574517826
 20
635.1385034999223
 30
0.0
 10
1298.75681973267
 20
637.9479813900841
 30
0.0
 10
1299.448426744058
 20
642.2350371647058
 30
0.0
 10
1300.07491236401
 20
647.2746036739041
 30
0.0
 10
1300.383067354823
 20
650.1839637933733
 30
0.0
 10
1300.518621793664
 20
651.6199144679712
 30
0.0
 10
1300.580516991122
 20
652.3227499306906
 30
0.0
  0
SPLINE
  5
AB
330
1F
100
AcDbEntity
  8
Default
100
AcDbSpline
210
0.0
220
0.0
230
1.0
 70
    12
 71
     2
 72
     6
 73
     3
 74
     0
 42
0.000000001
 43
0.0000000001
 40
597.6524887203121
 40
597.6524887203121
 40
597.6524887203121
 40
601.200854108654
 40
601.200854108654
 40
601.200854108654
 10
1300.580516991122
 20
652.3227499306906
 30
0.0
 41
1.0
 10
1300.737200524428
 20
654.0900520307445
 30
0.0
 41
0.9999565877159106
 10
1300.860923301084
 20
655.8599670335004
 30
0.0
 41
1.0
  0
SPLINE
  5
AC
330
1F
100
AcDbEntity
  8
Default
100
AcDbSpline
210
0.0
220
0.0
230
1.0
 70
    24
 71
     2
 72
     6
 73
     3
 74
     0
 42
0.000000001
 43
0.0000000001
 40
0.0
 40
0.0
 40
0.0
 40
271.9981271734891
 40
271.9981271734891
 40
271.9981271734891
 10
1297.859188947945
 20
665.86104328497
 30
0.0
 10
1161.860125361201
 20
665.8610432850102
 30
0.0
 10
1025.861061774456
 20
665.8610432850505
 30
0.0
  0
SPLINE
  5
AD
330
1F
100
AcDbEntity
  8
Default
100
AcDbSpline
210
0.0
220
0.0
230
1.0
 70
    24
 71
     2
 72
     6
 73
     3
 74
     0
 42
0.000000001
 43
0.0000000001
 40
271.9981271734891
 40
271.9981271734891
 40
271.9981271734891
 40
543.9970030138746
 40
543.9970030138746
 40
543.9970030138746
 10
1025.861061774456
 20
665.8610432850505
 30
0.0
 10
889.8616238542397
 20
665.8610432850086
 30
0.0
 10
753.8621859340232
 20
665.861043284967
 30
0.0
  0
SPLINE
  5
AE
330
1F
100
AcDbEntity
  8
Default
100
AcDbSpline
210
0.0
220
0.0
230
1.0
 70
    12
 71
     2
 72
     6
 73
     3
 74
     0
 42
0.000000001
 43
0.0000000001
 40
543.9970030138746
 40
543.9970030138746
 40
543.9970030138746
 40
544.418753110423
 40
544.418753110423
 40
544.418753110423
 10
753.8621859340232
 20
665.861043284967
 30
0.0
 41
1.0
 10
753.651295653892
 20
665.8621294387987
 30
0.0
 41
0.9998717730248799
 10
753.4404781591074
 20
665.856480632312
 30
0.0
 41
1.0
  0
SPLINE
  5
AF
330
1F
100
AcDbEntity
  8
Default
100
AcDbSpline
210
0.0
220
0.0
230
1.0
 70
    12
 71
     5
 72
    14
 73
     8
 74
     0
 42
0.000000001
 43
0.0000000001
 40
544.418753110423
 40
544.418753110423
 40
544.418753110423
 40
544.418753110423
 40
544.418753110423
 40
544.418753110423
 40
544.4208458741085
 40
544.4208458741085
 40
544.4233553405198
 40
544.4233553405198
 40
544.4233553405198
 40
544.4233553405198
 40
544.4233553405198
 40
544.4233553405198
 10
753.4404781591074
 20
665.856480632312
 30
0.0
 41
1.0
 10
753.0156139707265
 20
665.8431746444866
 30
0.0
 41
1.0
 10
752.5840856330265
 20
665.7982031834023
 30
0.0
 41
1.0
 10
751.6325783527464
 20
665.5326900469446
 30
0.0
 41
1.0
 10
751.0582253999467
 20
664.8900228269686
 30
0.0
 41
1.0
 10
750.8610266812766
 20
663.8702016168413
 30
0.0
 41
1.0
 10
750.8610391614761
 20
663.3656011463126
 30
0.0
 41
1.0
 10
750.8610460793966
 20
662.8609973635009
 30
0.0
 41
1.0
  0
SPLINE
  5
B0
330
1F
100
AcDbEntity
  8
Default
100
AcDbSpline
210
0.0
220
0.0
230
1.0
 70
    24
 71
     2
 72
     6
 73
     3
 74
     0
 42
0.000000001
 43
0.0000000001
 40
544.4233553405198
 40
544.4233553405198
 40
544.4233553405198
 40
551.4233092645979
 40
551.4233092645979
 40
551.4233092645979
 10
750.8610460793966
 20
662.8609973635009
 30
0.0
 10
750.8610855272695
 20
659.3610204016841
 30
0.0
 10
750.8611249751425
 20
655.8610434398674
 30
0.0
  0
SPLINE
  5
B1
330
1F
100
AcDbEntity
  8
Default
100
AcDbSpline
210
0.0
220
0.0
230
1.0
 70
    12
 71
     3
 72
   158
 73
   154
 74
     0
 42
0.000000001
 43
0.0000000001
 40
-356.6292149353137
 40
-356.6292149353137
 40
-356.6292149353137
 40
-356.6292149353137
 40
-355.6301225098995
 40
-355.6301225098995
 40
-355.6301225098995
 40
-340.4286664364283
 40
-340.4286664364283
 40
-340.4286664364283
 40
-321.4162996571128
 40
-321.4162996571128
 40
-321.4162996571128
 40
-298.6003069713074
 40
-298.6003069713074
 40
-298.6003069713074
 40
-275.7791140273681
 40
-275.7791140273681
 40
-275.7791140273681
 40
-256.7431008058994
 40
-256.7431008058994
 40
-256.7431008058994
 40
-241.4843431150888
 40
-241.4843431150888
 40
-241.4843431150888
 40
-231.9235931885396
 40
-231.9235931885396
 40
-231.9235931885396
 40
-224.2558474045128
 40
-224.2558474045128
 40
-224.2558474045128
 40
-218.4898499850887
 40
-218.4898499850887
 40
-218.4898499850887
 40
-212.7172325874706
 40
-212.7172325874706
 40
-212.7172325874706
 40
-205.0284061372468
 40
-205.0284061372468
 40
-205.0284061372468
 40
-195.4224650481531
 40
-195.4224650481531
 40
-195.4224650481531
 40
-185.8103344541541
 40
-185.8103344541541
 40
-185.8103344541541
 40
-178.1052908083492
 40
-178.1052908083492
 40
-178.1052908083492
 40
-172.3091973395004
 40
-172.3091973395004
 40
-172.3091973395004
 40
-167.4631298879215
 40
-167.4631298879215
 40
-167.4631298879215
 40
-163.57440758531
 40
-163.57440758531
 40
-163.57440758531
 40
-159.6918371539889
 40
-159.6918371539889
 40
-159.6918371539889
 40
-154.8492210510802
 40
-154.8492210510802
 40
-154.8492210510802
 40
-147.1164310660215
 40
-147.1164310660215
 40
-147.1164310660215
 40
-139.385283663457
 40
-139.385283663457
 40
-139.385283663457
 40
-131.6323821429646
 40
-131.6323821429646
 40
-131.6323821429646
 40
-126.7636411467113
 40
-126.7636411467113
 40
-126.7636411467113
 40
-122.849414083382
 40
-122.849414083382
 40
-122.849414083382
 40
-119.8993833948406
 40
-119.8993833948406
 40
-119.8993833948406
 40
-116.9490463656692
 40
-116.9490463656692
 40
-116.9490463656692
 40
-113.0299840707509
 40
-113.0299840707509
 40
-113.0299840707509
 40
-108.1485795691655
 40
-108.1485795691655
 40
-108.1485795691655
 40
-102.3065945923131
 40
-102.3065945923131
 40
-102.3065945923131
 40
-96.46668148851048
 40
-96.46668148851048
 40
-96.46668148851048
 40
-91.59159805547867
 40
-91.59159805547867
 40
-91.59159805547867
 40
-87.67883225160773
 40
-87.67883225160773
 40
-87.67883225160773
 40
-84.73450140055904
 40
-84.73450140055904
 40
-84.73450140055904
 40
-81.77998040382643
 40
-81.77998040382643
 40
-81.77998040382643
 40
-77.84739727895919
 40
-77.84739727895919
 40
-77.84739727895919
 40
-72.95653384277594
 40
-72.95653384277594
 40
-72.95653384277594
 40
-67.11173559837416
 40
-67.11173559837416
 40
-67.11173559837416
 40
-61.28076925867538
 40
-61.28076925867538
 40
-61.28076925867538
 40
-55.45240350505579
 40
-55.45240350505579
 40
-55.45240350505579
 40
-50.58921540485572
 40
-50.58921540485572
 40
-50.58921540485572
 40
-46.69134809856835
 40
-46.69134809856835
 40
-46.69134809856835
 40
-42.78791757922276
 40
-42.78791757922276
 40
-42.78791757922276
 40
-37.93284263204804
 40
-37.93284263204804
 40
-37.93284263204804
 40
-32.14136907190635
 40
-32.14136907190635
 40
-32.14136907190635
 40
-26.38061957139981
 40
-26.38061957139981
 40
-26.38061957139981
 40
-20.6440132321391
 40
-20.6440132321391
 40
-20.6440132321391
 40
-14.92666218465076
 40
-14.92666218465076
 40
-14.92666218465076
 40
-9.225726480943135
 40
-9.225726480943135
 40
-9.225726480943135
 40
-3.541830162203434
 40
-3.541830162203434
 40
-3.541830162203434
 40
0.0
 40
0.0
 40
0.0
 40
0.0
 10
1025.850721569737
 20
324.9999942305001
 30
0.0
 41
1.0
 10
1022.056425441445
 20
324.998079291637
 30
0.0
 41
1.0
 10
1018.262129313153
 20
324.9961643527738
 30
0.0
 41
1.0
 10
1014.46783318486
 20
324.9942494139105
 30
0.0
 41
1.0
 10
1009.400410664743
 20
324.9872314034015
 30
0.0
 41
1.0
 10
1004.333249919365
 20
324.9717290555224
 30
0.0
 41
1.0
 10
999.2666320652737
 20
324.9378621955056
 30
0.0
 41
1.0
 10
992.9294899481169
 20
324.895502753533
 30
0.0
 41
1.0
 10
986.592069066077
 20
324.8244127206046
 30
0.0
 41
1.0
 10
980.2559945532971
 20
324.7076570526846
 30
0.0
 41
1.0
 10
972.6520838970914
 20
324.5675388034944
 30
0.0
 41
1.0
 10
965.0495133534207
 20
324.3616327042019
 30
0.0
 41
1.0
 10
957.450263384975
 20
324.0576640846559
 30
0.0
 41
1.0
 10
949.8490228451821
 20
323.7536158426173
 30
0.0
 41
1.0
 10
942.2533707768144
 20
323.3515442965782
 30
0.0
 41
1.0
 10
934.6647296752765
 20
322.8161368849393
 30
0.0
 41
1.0
 10
928.3345656263858
 20
322.3695198024712
 30
0.0
 41
1.0
 10
922.0134924161774
 20
321.830419833082
 30
0.0
 41
1.0
 10
915.7014354787014
 20
321.1745792750296
 30
0.0
 41
1.0
 10
910.6416777949318
 20
320.648856149303
 30
0.0
 41
1.0
 10
905.5925902966615
 20
320.0486246247157
 30
0.0
 41
1.0
 10
900.5525798792366
 20
319.3581797200133
 30
0.0
 41
1.0
 10
897.3949900680016
 20
318.9262833063985
 30
0.0
 41
0.999953702384438
 10
894.2427094722829
 20
318.4572044495311
 30
0.0
 41
0.9999537023844371
 10
891.0961759213048
 20
317.9510083011076
 30
0.0
 41
1.0
 10
888.5726807618105
 20
317.5449151244038
 30
0.0
 41
0.9999637737793987
 10
886.0535561529735
 20
317.1125371724842
 30
0.0
 41
0.999963773779398
 10
883.5390758698848
 20
316.6539214356049
 30
0.0
 41
1.0
 10
881.6482636653429
 20
316.3089593321304
 30
0.0
 41
0.9999759209941421
 10
879.7604516420749
 20
315.9479393735709
 30
0.0
 41
0.9999759209941409
 10
877.8757761699889
 20
315.5708876389305
 30
0.0
 41
1.0
 10
875.9889366571632
 20
315.1933863724493
 30
0.0
 41
0.9999722915581113
 10
874.105617326389
 20
314.7986980755697
 30
0.0
 41
0.9999722915581131
 10
872.2259747292026
 20
314.386855556887
 30
0.0
 41
1.0
 10
869.722309572708
 20
313.8384862259241
 30
0.0
 41
0.9999428119379057
 10
867.2260417110981
 20
313.2573710032034
 30
0.0
 41
0.9999428119379054
 10
864.737599414537
 20
312.6436095872853
 30
0.0
 41
1.0
 10
861.628464057266
 20
311.8773987117655
 30
0.0
 41
0.9998904297238325
 10
858.5337308299139
 20
311.0549462650487
 30
0.0
 41
0.9998904297238318
 10
855.4544170048004
 20
310.1765225961583
 30
0.0
 41
1.0
 10
852.3730789002815
 20
309.2975081109425
 30
0.0
 41
0.9998620866152222
 10
849.3102569928897
 20
308.3560024321613
 30
0.0
 41
0.999862086615222
 10
846.2672184950323
 20
307.3523950985191
 30
0.0
 41
1.0
 10
843.8280359331368
 20
306.5477141388137
 30
0.0
 41
0.999892049459639
 10
841.4037286919265
 20
305.699270023165
 30
0.0
 41
0.9998920494596383
 10
838.99508188723
 20
304.8073375215749
 30
0.0
 41
1.0
 10
837.1832802751583
 20
304.1362286708875
 30
0.0
 41
0.9999282672451698
 10
835.3815182701033
 20
303.4386142730173
 30
0.0
 41
0.9999282672451702
 10
833.5901836081211
 20
302.7146444533717
 30
0.0
 41
1.0
 10
832.0924999974687
 20
302.1092787975496
 30
0.0
 41
0.9999427644822061
 10
830.6028773182985
 20
301.4843403617259
 30
0.0
 41
0.9999427644822061
 10
829.1215713485884
 20
300.8399364519263
 30
0.0
 41
1.0
 10
827.9329357522033
 20
300.3227773033306
 30
0.0
 41
0.9999595085406514
 10
826.7500721546966
 20
299.7925491678445
 30
0.0
 41
0.9999595085406504
 10
825.5731242436871
 20
299.2493164546007
 30
0.0
 41
1.0
 10
824.3980412698881
 20
298.7069308803124
 30
0.0
 41
0.9999558342177873
 10
823.2292793046763
 20
298.1510553769972
 30
0.0
 41
0.9999558342177875
 10
822.066993205914
 20
297.5817635966846
 30
0.0
 41
1.0
 10
820.6172478038011
 20
296.8717683083362
 30
0.0
 41
0.9999247581685784
 10
819.1783328083777
 20
296.1400725543717
 30
0.0
 41
0.9999247581685787
 10
817.7505730194415
 20
295.386841497178
 30
0.0
 41
1.0
 10
815.4702762524147
 20
294.1844659999519
 30
0.0
 41
0.9997809656755102
 10
813.221547865905
 20
292.924037173819
 30
0.0
 41
0.9997809656755103
 10
811.0058655060214
 20
291.606383250308
 30
0.0
 41
1.0
 10
808.7905630975754
 20
290.2890670933745
 30
0.0
 41
0.999743437955227
 10
806.6126563056215
 20
288.9108041925657
 30
0.0
 41
0.9997434379552259
 10
804.4738214348196
 20
287.4726553777252
 30
0.0
 41
1.0
 10
802.3289665182572
 20
286.0303664225838
 30
0.0
 41
0.9997019961362985
 10
800.2281900229144
 20
284.5245981270481
 30
0.0
 41
0.9997019961362983
 10
798.1733700673292
 20
282.9566966654272
 30
0.0
 41
1.0
 10
796.883270233202
 20
281.9718961375879
 30
0.0
 41
0.999870590323497
 10
795.6128239296232
 20
280.9618684887712
 30
0.0
 41
0.9998705903234984
 10
794.3625243807308
 20
279.9270058410309
 30
0.0
 41
1.0
 10
793.3573884147432
 20
279.0950164728593
 30
0.0
 41
0.9999107166242325
 10
792.3660030497763
 20
278.2466888963869
 30
0.0
 41
0.9999107166242328
 10
791.3886338285268
 20
277.3822503362642
 30
0.0
 41
1.0
 10
790.652064261528
 20
276.7307284281135
 30
0.0
 41
0.999947300914429
 10
789.9237447809784
 20
276.0699968199086
 30
0.0
 41
0.9999473009144287
 10
789.2037905321897
 20
275.4001599715035
 30
0.0
 41
1.0
 10
788.4837722785982
 20
274.7302407734743
 30
0.0
 41
0.9999455980436675
 10
787.772370961261
 20
274.0511780495049
 30
0.0
 41
0.999945598043668
 10
787.0697026850499
 20
273.3630826266176
 30
0.0
 41
1.0
 10
786.1362654902939
 20
272.4490658132837
 30
0.0
 41
0.9998999849323475
 10
785.2188001666458
 20
271.5190179051002
 30
0.0
 41
0.9998999849323482
 10
784.3175819951775
 20
270.5732179584804
 30
0.0
 41
1.0
 10
783.1950566590942
 20
269.3951141949651
 30
0.0
 41
0.999839942840075
 10
782.0986148461212
 20
268.1926970632992
 30
0.0
 41
0.9998399428400752
 10
781.028783036348
 20
266.9665439298956
 30
0.0
 41
1.0
 10
779.7483275565547
 20
265.4990919365354
 30
0.0
 41
0.9997643149135825
 10
778.5073416022417
 20
263.9981137722214
 30
0.0
 41
0.9997643149135823
 10
777.306702619054
 20
262.4646707114589
 30
0.0
 41
1.0
 10
776.1065928352572
 20
260.9316872912701
 30
0.0
 41
0.9997616845486493
 10
774.9478980428861
 20
259.3671656270327
 30
0.0
 41
0.9997616845486497
 10
773.8314466465562
 20
257.772224267806
 30
0.0
 41
1.0
 10
772.8994792420705
 20
256.4408383421275
 30
0.0
 41
0.9998347960310404
 10
771.9973807182465
 20
255.0890358493676
 30
0.0
 41
0.9998347960310404
 10
771.1255981658524
 20
253.7174867589373
 30
0.0
 41
1.0
 10
770.4259294360487
 20
252.6167034113734
 30
0.0
 41
0.9998950760595842
 10
769.7458999447769
 20
251.5036804103814
 30
0.0
 41
0.9998950760595837
 10
769.0857237461556
 20
250.3787681042378
 30
0.0
 41
1.0
 10
768.5889591680616
 20
249.5322973881676
 30
0.0
 41
0.9999417148794089
 10
768.1034309028737
 20
248.6793319592563
 30
0.0
 41
0.9999417148794101
 10
767.629223847814
 20
247.8200209630827
 30
0.0
 41
1.0
 10
767.1533763380209
 20
246.9577363631212
 30
0.0
 41
0.9999431903322312
 10
766.6888261301538
 20
246.0893132587085
 30
0.0
 41
0.999943190332231
 10
766.2356523970418
 20
245.2148996543288
 30
0.0
 41
1.0
 10
765.6324933674179
 20
244.0509732945437
 30
0.0
 41
0.9999018268253887
 10
765.0493972284817
 20
242.8768675587685
 30
0.0
 41
0.9999018268253891
 10
764.4865357134348
 20
241.6929282440657
 30
0.0
 41
1.0
 10
763.7866073347953
 20
240.220405590912
 30
0.0
 41
0.9998554143767901
 10
763.1174970724138
 20
238.7336257968427
 30
0.0
 41
0.9998554143767906
 10
762.4794951574641
 20
237.2332337628074
 30
0.0
 41
1.0
 10
761.7170879109782
 20
235.4401354740265
 30
0.0
 41
0.9998088913018944
 10
760.9978304971857
 20
233.6292972550163
 30
0.0
 41
0.9998088913018953
 10
760.3221352851318
 20
231.80175730658
 30
0.0
 41
1.0
 10
759.6481222330896
 20
229.9785304525117
 30
0.0
 41
0.9998271132732419
 10
759.0158036535184
 20
228.1404273624634
 30
0.0
 41
0.9998271132732416
 10
758.4255075048837
 20
226.2884013873145
 30
0.0
 41
1.0
 10
757.8354347072062
 20
224.4372323588528
 30
0.0
 41
0.9998449857737913
 10
757.2854169725291
 20
222.5737696760941
 30
0.0
 41
0.9998449857737908
 10
756.7757100825709
 20
220.6988799287158
 30
0.0
 41
1.0
 10
756.3503355885933
 20
219.1345408916728
 30
0.0
 41
0.9999026666973216
 10
755.9517536565314
 20
217.5631617119785
 30
0.0
 41
0.9999026666973216
 10
755.5800806722717
 20
215.9852012322089
 30
0.0
 41
1.0
 10
755.2821228463272
 20
214.7204996598733
 30
0.0
 41
0.9999426853166925
 10
755.000773987682
 20
213.4519998558337
 30
0.0
 41
0.9999426853166919
 10
754.7360824725989
 20
212.1799199310833
 30
0.0
 41
1.0
 10
754.4710251267202
 20
210.9060251594569
 30
0.0
 41
0.9999475148337213
 10
754.2219733273586
 20
209.6289047708425
 30
0.0
 41
0.9999475148337211
 10
753.9889662890871
 20
208.3487598548673
 30
0.0
 41
1.0
 10
753.699272688373
 20
206.7564801054404
 30
0.0
 41
0.9999261084280696
 10
753.4333175861387
 20
205.1600637855774
 30
0.0
 41
0.99992610842807
 10
753.1911599379061
 20
203.5598647804121
 30
0.0
 41
1.0
 10
752.9024383509753
 20
201.6509978641793
 30
0.0
 41
0.999909627025411
 10
752.6451856473204
 20
199.7376358740923
 30
0.0
 41
0.999909627025411
 10
752.4194715730185
 20
197.8202975587946
 30
0.0
 41
1.0
 10
752.1950234197096
 20
195.9131392070227
 30
0.0
 41
0.9999266395438199
 10
751.998892146964
 20
194.0028610921636
 30
0.0
 41
0.9999266395438199
 10
751.8311209196205
 20
192.0898836308397
 30
0.0
 41
1.0
 10
751.6640338753773
 20
190.1849403841941
 30
0.0
 41
0.9999425906825607
 10
751.5219603275368
 20
188.2779684493461
 30
0.0
 41
0.9999425906825598
 10
751.4049247451362
 20
186.3692962601667
 30
0.0
 41
1.0
 10
751.2883830177378
 20
184.4670387399817
 30
0.0
 41
0.999957545473045
 10
751.1933163876165
 20
182.5635871427087
 30
0.0
 41
0.9999575454730452
 10
751.1197369627981
 20
180.6591838987583
 30
0.0
 41
1.0
 10
751.046348769552
 20
178.7602620967346
 30
0.0
 41
0.9999710589066094
 10
750.9906575356488
 20
176.8607389135186
 30
0.0
 41
0.9999710589066086
 10
750.9526680963837
 20
174.9607792719437
 30
0.0
 41
1.0
 10
750.9151874979555
 20
173.0665035094878
 30
0.0
 41
0.9999847782370057
 10
750.890508458523
 20
171.172017720547
 30
0.0
 41
0.9999847782370057
 10
750.8786321050632
 20
169.277408417362
 30
0.0
 41
1.0
 10
750.8709233312949
 20
168.096822392782
 30
0.0
 41
0.9999980723361932
 10
750.8660536334549
 20
166.9162212439299
 30
0.0
 41
0.9999980723361943
 10
750.8640230397056
 20
165.7356117982131
 30
0.0
 41
1.0
  0
POLYLINE
  5
B2
330
1F
100
AcDbEntity
  8
Default
100
AcDb2dPolyline
 66
     1
 10
0.0
 20
0.0
 30
0.0
  0
VERTEX
  5
B3
330
B2
100
AcDbEntity
  8
Default
100
AcDbVertex
100
AcDb2dVertex
 10
750.8640230397056
 20
165.7356117982131
 30
0.0
  0
VERTEX
  5
B4
330
B2
100
AcDbEntity
  8
Default
100
AcDbVertex
100
AcDb2dVertex
 10
750.8623153090804
 20
160.3889323358524
 30
0.0
  0
SEQEND
  5
B5
330
B2
100
AcDbEntity
  8
Default
  0
SPLINE
  5
B6
330
1F
100
AcDbEntity
  8
Default
100
AcDbSpline
210
0.0
220
0.0
230
1.0
 70
    12
 71
     3
 72
    12
 73
     8
 74
     0
 42
0.000000001
 43
0.0000000001
 40
-0.7545572945921054
 40
-0.7545572945921054
 40
-0.7545572945921054
 40
-0.7545572945921054
 40
-0.7541041747062345
 40
-0.7541041747062345
 40
-0.7521526205370485
 40
-0.7521526205370485
 40
-0.7502010663678625
 40
-0.7502010663678625
 40
-0.7502010663678625
 40
-0.7502010663678625
 10
1300.845752758246
 20
168.9308277067478
 30
0.0
 41
1.0
 10
1300.847146999657
 20
168.7072991357823
 30
0.0
 41
1.0
 10
1300.848413767862
 20
168.4838264784497
 30
0.0
 41
1.0
 10
1300.854520042619
 20
167.2981646005469
 30
0.0
 41
1.0
 10
1300.857335606295
 20
166.3369864033563
 30
0.0
 41
1.0
 10
1300.860635624483
 20
164.4171237861232
 30
0.0
 41
1.0
 10
1300.861164376538
 20
163.4585740787666
 30
0.0
 41
1.0
 10
1300.861024567446
 20
162.4999997309429
 30
0.0
 41
1.0
  0
SPLINE
  5
B7
330
1F
100
AcDbEntity
  8
Default
100
AcDbSpline
210
0.0
220
0.0
230
1.0
 70
    12
 71
     2
 72
     6
 73
     3
 74
     0
 42
0.000000001
 43
0.0000000001
 40
-0.7502010663678625
 40
-0.7502010663678625
 40
-0.7502010663678625
 40
2.47299512573576
 40
2.47299512573576
 40
2.47299512573576
 10
1300.861024567446
 20
162.4999997309429
 30
0.0
 41
1.0
 10
1300.861414955596
 20
160.8884010607134
 30
0.0
 41
0.9999994215737078
 10
1300.85835145951
 20
159.2768052533165
 30
0.0
 41
1.0
  0
SPLINE
  5
B8
330
1F
100
AcDbEntity
  8
Default
100
AcDbSpline
210
0.0
220
0.0
230
1.0
 70
    12
 71
     3
 72
   152
 73
   148
 74
     0
 42
0.000000001
 43
0.0000000001
 40
2.47299512573576
 40
2.47299512573576
 40
2.47299512573576
 40
2.47299512573576
 40
5.680655843366603
 40
5.680655843366603
 40
5.680655843366603
 40
10.50750351358185
 40
10.50750351358185
 40
10.50750351358185
 40
16.32363151828322
 40
16.32363151828322
 40
16.32363151828322
 40
22.15212880713729
 40
22.15212880713729
 40
22.15212880713729
 40
27.9783304901818
 40
27.9783304901818
 40
27.9783304901818
 40
35.74615309343656
 40
35.74615309343656
 40
35.74615309343656
 40
43.51982826259517
 40
43.51982826259517
 40
43.51982826259517
 40
51.31305652396003
 40
51.31305652396003
 40
51.31305652396003
 40
56.20273905295452
 40
56.20273905295452
 40
56.20273905295452
 40
60.12973125996983
 40
60.12973125996983
 40
60.12973125996983
 40
63.08634300929212
 40
63.08634300929212
 40
63.08634300929212
 40
66.04765155767657
 40
66.04765155767657
 40
66.04765155767657
 40
69.98453901632359
 40
69.98453901632359
 40
69.98453901632359
 40
74.89118063748728
 40
74.89118063748728
 40
74.89118063748728
 40
80.76690885615951
 40
80.76690885615951
 40
80.76690885615951
 40
86.64134825125813
 40
86.64134825125813
 40
86.64134825125813
 40
92.52932624016244
 40
92.52932624016244
 40
92.52932624016244
 40
97.45691549125375
 40
97.45691549125375
 40
97.45691549125375
 40
101.4197958358986
 40
101.4197958358986
 40
101.4197958358986
 40
104.4007214342708
 40
104.4007214342708
 40
104.4007214342708
 40
107.3700901069922
 40
107.3700901069922
 40
107.3700901069922
 40
111.3132567373108
 40
111.3132567373108
 40
111.3132567373108
 40
118.1839192430061
 40
118.1839192430061
 40
118.1839192430061
 40
126.0153332087215
 40
126.0153332087215
 40
126.0153332087215
 40
133.8567017216026
 40
133.8567017216026
 40
133.8567017216026
 40
138.775181740046
 40
138.775181740046
 40
138.775181740046
 40
142.7228662914371
 40
142.7228662914371
 40
142.7228662914371
 40
146.6548294666799
 40
146.6548294666799
 40
146.6548294666799
 40
151.5453591283337
 40
151.5453591283337
 40
151.5453591283337
 40
157.3869450731044
 40
157.3869450731044
 40
157.3869450731044
 40
165.1464001323749
 40
165.1464001323749
 40
165.1464001323749
 40
172.8897444572674
 40
172.8897444572674
 40
172.8897444572674
 40
180.6315118219035
 40
180.6315118219035
 40
180.6315118219035
 40
186.4437078548091
 40
186.4437078548091
 40
186.4437078548091
 40
192.2659453394077
 40
192.2659453394077
 40
192.2659453394077
 40
198.0971559881942
 40
198.0971559881942
 40
198.0971559881942
 40
203.9070775848001
 40
203.9070775848001
 40
203.9070775848001
 40
211.617393047032
 40
211.617393047032
 40
211.617393047032
 40
221.2112576575686
 40
221.2112576575686
 40
221.2112576575686
 40
232.6773896394378
 40
232.6773896394378
 40
232.6773896394378
 40
244.1095401634009
 40
244.1095401634009
 40
244.1095401634009
 40
259.3225215712201
 40
259.3225215712201
 40
259.3225215712201
 40
278.3173672241293
 40
278.3173672241293
 40
278.3173672241293
 40
301.1077634450787
 40
301.1077634450787
 40
301.1077634450787
 40
320.1070896768101
 40
320.1070896768101
 40
320.1070896768101
 40
335.3116668382055
 40
335.3116668382055
 40
335.3116668382055
 40
346.7164368430029
 40
346.7164368430029
 40
346.7164368430029
 40
358.1164018790835
 40
358.1164018790835
 40
358.1164018790835
 40
359.1066896088257
 40
359.1066896088257
 40
359.1066896088257
 40
359.1066896088257
 10
1300.85835145951
 20
159.2768052533165
 30
0.0
 41
1.0
 10
1300.856422465688
 20
158.20758596319
 30
0.0
 41
0.9999985257288493
 10
1300.852231966161
 20
157.1383731475697
 30
0.0
 41
0.9999985257288484
 10
1300.845792870616
 20
156.0691715092328
 30
0.0
 41
1.0
 10
1300.836452605737
 20
154.4602416728099
 30
0.0
 41
0.9999903986013086
 10
1300.818477453924
 20
152.8513851369441
 30
0.0
 41
0.9999903986013086
 10
1300.791867932932
 20
151.2426482434552
 30
0.0
 41
1.0
 10
1300.759672779757
 20
149.3041797636329
 30
0.0
 41
0.9999726794915853
 10
1300.709929665689
 20
147.3660821918489
 30
0.0
 41
0.9999726794915851
 10
1300.642642667752
 20
145.428514377536
 30
0.0
 41
1.0
 10
1300.575170681823
 20
143.486813581804
 30
0.0
 41
0.9999585142599332
 10
1300.486041540555
 20
141.5459863238521
 30
0.0
 41
0.9999585142599331
 10
1300.375266336712
 20
139.6062741536461
 30
0.0
 41
1.0
 10
1300.264425882018
 20
137.6673173387511
 30
0.0
 41
0.9999432590413258
 10
1300.128297928881
 20
135.7299716502383
 30
0.0
 41
0.9999432590413261
 10
1299.966905649394
 20
133.7945668686624
 30
0.0
 41
1.0
 10
1299.75100043953
 20
131.2143287770451
 30
0.0
 41
1.0
 10
1299.487332219153
 20
128.6387512230559
 30
0.0
 41
1.0
 10
1299.168219670804
 20
126.0691863043557
 30
0.0
 41
1.0
 10
1298.849904836695
 20
123.4973608731426
 30
0.0
 41
0.9998268125869058
 10
1298.473054549991
 20
120.9334587214101
 30
0.0
 41
0.9998268125869056
 10
1298.03786460787
 20
118.3788119559014
 30
0.0
 41
1.0
 10
1297.601453645387
 20
115.8177109711062
 30
0.0
 41
0.9997888315022152
 10
1297.100724301147
 20
113.2684046132297
 30
0.0
 41
0.999788831502215
 10
1296.535993789938
 20
110.7325078818537
 30
0.0
 41
1.0
 10
1296.181361076982
 20
109.1415825383858
 30
0.0
 41
0.999904855767475
 10
1295.799901643325
 20
107.5568754644885
 30
0.0
 41
0.9999048557674745
 10
1295.391724369961
 20
105.9788389873763
 30
0.0
 41
1.0
 10
1295.063834895586
 20
104.7115279239161
 30
0.0
 41
0.9999331003494067
 10
1294.718025000165
 20
103.448989070969
 30
0.0
 41
0.9999331003494045
 10
1294.354364087375
 20
102.1914758187592
 30
0.0
 41
1.0
 10
1294.080546600245
 20
101.2447198577157
 30
0.0
 41
0.9999596477128108
 10
1293.796329082204
 20
100.3010338567247
 30
0.0
 41
0.9999596477128106
 10
1293.501745939727
 20
99.36053205545167
 30
0.0
 41
1.0
 10
1293.206686264987
 20
98.41853763068424
 30
0.0
 41
0.9999572334951771
 10
1292.900975777343
 20
97.479945703543
 30
0.0
 41
0.9999572334951761
 10
1292.5846536993
 20
96.54487669491647
 30
0.0
 41
1.0
 10
1292.164148065488
 20
95.30172153379471
 30
0.0
 41
0.9999190464777601
 10
1291.724320771415
 20
94.06527028361169
 30
0.0
 41
0.9999190464777603
 10
1291.265278633785
 20
92.83582322961885
 30
0.0
 41
1.0
 10
1290.693206214969
 20
91.3034696604496
 30
0.0
 41
0.9998655741151928
 10
1290.090478321082
 20
89.78291272325625
 30
0.0
 41
0.9998655741151928
 10
1289.457338018818
 20
88.2747656246739
 30
0.0
 41
1.0
 10
1288.699215472519
 20
86.46864564452428
 30
0.0
 41
0.9997917755282768
 10
1287.896192039741
 20
84.68203641352147
 30
0.0
 41
0.9997917755282761
 10
1287.048769347865
 20
82.916053978955
 30
0.0
 41
1.0
 10
1286.201423634275
 20
81.15049628351572
 30
0.0
 41
0.9997780741785218
 10
1285.308807692145
 20
79.40738827936889
 30
0.0
 41
0.9997780741785218
 10
1284.371515805055
 20
77.68789048854177
 30
0.0
 41
1.0
 10
1283.432082359915
 20
75.96440634454508
 30
0.0
 41
0.999766121890577
 10
1282.447330183571
 20
74.26640871685671
 30
0.0
 41
0.9997661218905758
 10
1281.41795021195
 20
72.59508897890111
 30
0.0
 41
1.0
 10
1280.556366228409
 20
71.19650738198886
 30
0.0
 41
0.9998319527099429
 10
1279.663598906358
 20
69.81762234232959
 30
0.0
 41
0.9998319527099429
 10
1278.740098327187
 20
68.45912901360596
 30
0.0
 41
1.0
 10
1277.997450543323
 20
67.36660838619433
 30
0.0
 41
0.9998903094532522
 10
1277.235107080106
 20
66.28773884065662
 30
0.0
 41
0.9998903094532527
 10
1276.45331880315
 20
65.22287540236391
 30
0.0
 41
1.0
 10
1275.865228294096
 20
64.42191661893804
 30
0.0
 41
0.9999379564458843
 10
1275.266265312537
 20
63.62905549219215
 30
0.0
 41
0.9999379564458834
 10
1274.656541343844
 20
62.84443959789275
 30
0.0
 41
1.0
 10
1274.049156036173
 20
62.06288559868339
 30
0.0
 41
0.9999385585990228
 10
1273.43121610097
 20
61.2896496695296
 30
0.0
 41
0.9999385585990221
 10
1272.802835439518
 20
60.52487433652764
 30
0.0
 41
1.0
 10
1271.968374832609
 20
59.50925763802622
 30
0.0
 41
0.9998937028269809
 10
1271.115911590182
 20
58.50870368992186
 30
0.0
 41
0.9998937028269775
 10
1270.245717555533
 20
57.52353156038289
 30
0.0
 41
1.0
 10
1268.729130321868
 20
55.80693038621396
 30
0.0
 41
0.9996864964074996
 10
1267.160618168444
 20
54.13764130009654
 30
0.0
 41
0.9996864964074996
 10
1265.541656297843
 20
52.51723428640674
 30
0.0
 41
1.0
 10
1263.696061168031
 20
50.67036349964259
 30
0.0
 41
0.9996197216368843
 10
1261.789147324307
 20
48.88687459336818
 30
0.0
 41
0.9996197216368843
 10
1259.823090240899
 20
47.16880223430913
 30
0.0
 41
1.0
 10
1257.854490572447
 20
45.44866823339001
 30
0.0
 41
0.9996561519867288
 10
1255.831666698938
 20
43.79264008975514
 30
0.0
 41
0.999656151986729
 10
1253.756705252283
 20
42.20242606936588
 30
0.0
 41
1.0
 10
1252.455544739839
 20
41.20480268497288
 30
0.0
 41
0.9998762476544539
 10
1251.135404413198
 20
40.23243412613785
 30
0.0
 41
0.9998762476544539
 10
1249.796774383749
 20
39.28568139153049
 30
0.0
 41
1.0
 10
1248.722386109021
 20
38.52581560678105
 30
0.0
 41
0.9999267099490641
 10
1247.636848952491
 20
37.78196397002814
 30
0.0
 41
0.9999267099490641
 10
1246.540401591381
 20
37.05429003204474
 30
0.0
 41
1.0
 10
1245.44831285791
 20
36.32953239413013
 30
0.0
 41
0.9999321860612171
 10
1244.345998037694
 20
35.62042487575113
 30
0.0
 41
0.9999321860612173
 10
1243.233681387662
 20
34.92711173902917
 30
0.0
 41
1.0
 10
1241.850147070737
 20
34.06481081157664
 30
0.0
 41
0.999904243435756
 10
1240.452196836183
 20
33.22608246622269
 30
0.0
 41
0.9999042434357551
 10
1239.040232272731
 20
32.41116764420134
 30
0.0
 41
1.0
 10
1237.353608102389
 20
31.43785735143971
 30
0.0
 41
0.9998775287937917
 10
1235.648638186145
 20
30.49705365105011
 30
0.0
 41
0.9998775287937924
 10
1233.925948953158
 20
29.58910220712454
 30
0.0
 41
1.0
 10
1231.637460574402
 20
28.38329155339018
 30
0.0
 41
0.9998126483301268
 10
1229.321030335851
 20
27.23207074821379
 30
0.0
 41
0.9998126483301271
 10
1226.977960198718
 20
26.13608684101615
 30
0.0
 41
1.0
 10
1224.639806715915
 20
25.04235876550486
 30
0.0
 41
0.9998425222807838
 10
1222.278434190938
 20
23.9997070448477
 30
0.0
 41
0.9998425222807846
 10
1219.894958214465
 20
23.00862426228952
 30
0.0
 41
1.0
 10
1217.512004400558
 20
22.01774332705089
 30
0.0
 41
0.9998688236598123
 10
1215.109863768503
 20
21.07432703989761
 30
0.0
 41
0.9998688236598129
 10
1212.689481630352
 20
20.17874666251712
 30
0.0
 41
1.0
 10
1210.872527148213
 20
19.50612127088545
 30
0.0
 41
0.9999374307249283
 10
1209.046528005156
 20
18.85845188209118
 30
0.0
 41
0.9999374307249285
 10
1207.211826955506
 20
18.23586006874671
 30
0.0
 41
1.0
 10
1205.373983393311
 20
17.61213484939579
 30
0.0
 41
0.9999448491138583
 10
1203.528269157263
 20
17.01210062771008
 30
0.0
 41
0.9999448491138583
 10
1201.674989625683
 20
16.43585668094677
 30
0.0
 41
1.0
 10
1199.818851559824
 20
15.85875449340788
 30
0.0
 41
0.9999517287578996
 10
1197.955903251326
 20
15.30403018867802
 30
0.0
 41
0.999951728757899
 10
1196.086414480676
 20
14.77176409845079
 30
0.0
 41
1.0
 10
1194.223749819925
 20
14.24146815745164
 30
0.0
 41
0.9999581757791233
 10
1192.355262021344
 20
13.73206971810421
 30
0.0
 41
0.9999581757791231
 10
1190.481185529073
 20
13.24363269598707
 30
0.0
 41
1.0
 10
1187.994046878576
 20
12.59556305662232
 30
0.0
 41
0.9999375678822175
 10
1185.498272113155
 20
11.98159135975413
 30
0.0
 41
0.9999375678822183
 10
1182.994328682324
 20
11.40183260004236
 30
0.0
 41
1.0
 10
1179.878620821178
 20
10.68065828922882
 30
0.0
 41
0.9999205589736154
 10
1176.752151279961
 20
10.00766789522385
 30
0.0
 41
0.9999205589736146
 10
1173.61566516852
 20
9.38302180717042
 30
0.0
 41
1.0
 10
1169.866798073194
 20
8.63532563939097
 30
0.0
 41
1.0
 10
1166.107368331345
 20
7.95352028404983
 30
0.0
 41
1.0
 10
1162.336166472013
 20
7.328456170655925
 30
0.0
 41
1.0
 10
1158.576428812357
 20
6.706431952535913
 30
0.0
 41
0.9999326190429629
 10
1154.808227627199
 20
6.137924058560098
 30
0.0
 41
0.9999326190429627
 10
1151.032324631539
 20
5.623047408546415
 30
0.0
 41
1.0
 10
1146.007452664123
 20
4.936337752376886
 30
0.0
 41
1.0
 10
1140.972887462345
 20
4.339050690533383
 30
0.0
 41
1.0
 10
1135.928455671742
 20
3.815835629112541
 30
0.0
 41
1.0
 10
1129.630163941347
 20
3.162568575189197
 30
0.0
 41
1.0
 10
1123.322231513032
 20
2.625367234291189
 30
0.0
 41
1.0
 10
1117.005952953765
 20
2.180235571337959
 30
0.0
 41
1.0
 10
1109.427859569987
 20
1.646179120488852
 30
0.0
 41
1.0
 10
1101.841742273585
 20
1.244933907010505
 30
0.0
 41
1.0
 10
1094.251100357666
 20
0.9415050592641307
 30
0.0
 41
1.0
 10
1087.923324836941
 20
0.688558120610054
 30
0.0
 41
1.0
 10
1081.592380413997
 20
0.50358722662628
 30
0.0
 41
1.0
 10
1075.261069147194
 20
0.3679050353654532
 30
0.0
 41
1.0
 10
1070.194001360348
 20
0.2593160193442259
 30
0.0
 41
1.0
 10
1065.126163346636
 20
0.1822859000493508
 30
0.0
 41
1.0
 10
1060.058616967182
 20
0.1279023685239053
 30
0.0
 41
1.0
 10
1056.257234082104
 20
0.0877254907202755
 30
0.0
 41
0.999997268208023
 10
1052.455751757397
 20
0.0584312007305725
 30
0.0
 41
0.9999972682080226
 10
1048.654201147641
 20
0.0400197386324016
 30
0.0
 41
1.0
 10
1044.854254833156
 20
0.0217102010551961
 30
0.0
 41
0.9999989053096721
 10
1041.05428157778
 20
0.0102869556752786
 30
0.0
 41
0.9999989053096719
 10
1037.254293860888
 20
0.0057500400075052
 30
0.0
 41
1.0
 10
1033.493434548455
 20
0.0038519753170362
 30
0.0
 41
1.0
 10
1029.732575236022
 20
0.0019539106261902
 30
0.0
 41
1.0
 10
1025.971715923589
 20
0.0000558459353165
 30
0.0
 41
1.0
  0
SPLINE
  5
B9
330
1F
100
AcDbEntity
  8
Default
100
AcDbSpline
210
0.0
220
0.0
230
1.0
 70
     8
 71
     3
 72
    39
 73
    35
 74
     0
 42
0.000000001
 43
0.0000000001
 40
343.8607715312336
 40
343.8607715312336
 40
343.8607715312336
 40
343.8607715312336
 40
354.6531092037639
 40
365.3959531616343
 40
375.0350456251535
 40
384.6664787532479
 40
393.5031691509118
 40
402.2548677677399
 40
410.6690350450127
 40
419.0520571401311
 40
426.9301873857062
 40
434.7798089070217
 40
442.5474427156217
 40
450.2917928772311
 40
458.0719077313079
 40
466.2061948804387
 40
474.3545690206929
 40
482.7502722046347
 40
491.1774710064117
 40
499.6668419491081
 40
508.7795060828876
 40
518.4592678325077
 40
528.6575105923403
 40
538.8603603580882
 40
549.8902173852999
 40
561.4920910196603
 40
573.4082131231694
 40
585.9154349311152
 40
599.5678884222426
 40
613.8366095299748
 40
628.1406424569678
 40
644.6688475896178
 40
663.409858721817
 40
687.7215153883778
 40
687.7215153883778
 40
687.7215153883778
 40
687.7215153883778
 10
1283.855876492945
 20
162.4999997245421
 30
0.0
 10
1283.85576466226
 20
158.902579398946
 30
0.0
 10
1283.72414010034
 20
151.7239444436881
 30
0.0
 10
1283.087346237275
 20
141.3493163245938
 30
0.0
 10
1282.00742686042
 20
131.4004411673691
 30
0.0
 10
1280.518392914307
 20
122.1468675328374
 30
0.0
 10
1278.575957143808
 20
113.2801760638518
 30
0.0
 10
1276.21754050149
 20
104.9352634012375
 30
0.0
 10
1273.369782698417
 20
96.90403808485928
 30
0.0
 10
1270.080737941518
 20
89.35916095535239
 30
0.0
 10
1266.331635342115
 20
82.24400238232483
 30
0.0
 10
1262.163281337347
 20
75.60673289250003
 30
0.0
 10
1257.515463148999
 20
69.35110457280621
 30
0.0
 10
1252.404465032016
 20
63.49863716991424
 30
0.0
 10
1246.763714857988
 20
57.97875996778839
 30
0.0
 10
1240.607892032544
 20
52.82727620193563
 30
0.0
 10
1233.915917874773
 20
48.03388190228715
 30
0.0
 10
1226.816611413543
 20
43.67865546069124
 30
0.0
 10
1219.34716536703
 20
39.74593494040138
 30
0.0
 10
1211.440094406067
 20
36.16555965504738
 30
0.0
 10
1202.957433704876
 20
32.87856474879576
 30
0.0
 10
1193.774465657386
 20
29.8593640316119
 30
0.0
 10
1184.108526021509
 20
27.18336543740569
 30
0.0
 10
1173.899345986761
 20
24.82045411322792
 30
0.0
 10
1163.148873839216
 20
22.75734836880055
 30
0.0
 10
1151.768844385514
 20
20.98288220050244
 30
0.0
 10
1139.85194401223
 20
19.49393749594753
 30
0.0
 10
1127.219153341021
 20
18.25917911710415
 30
0.0
 10
1113.778453273625
 20
17.27110224990604
 30
0.0
 10
1099.721889516589
 20
16.53636043710721
 30
0.0
 10
1084.697056940789
 20
16.00940089714972
 30
0.0
 10
1068.175718773708
 20
15.67078088988649
 30
0.0
 10
1048.315894347604
 20
15.50254657180267
 30
0.0
 10
1033.964938859215
 20
15.50121176134643
 30
0.0
 10
1025.861061774359
 20
15.50120482964149
 30
0.0
  0
SPLINE
  5
BA
330
1F
100
AcDbEntity
  8
Default
100
AcDbSpline
210
0.0
220
0.0
230
1.0
 70
     8
 71
     3
 72
    39
 73
    35
 74
     0
 42
0.000000001
 43
0.0000000001
 40
687.7215153883778
 40
687.7215153883778
 40
687.7215153883778
 40
687.7215153883778
 40
712.3837439697698
 40
730.6142979220878
 40
746.7032843596779
 40
761.7214845156434
 40
776.2057458235817
 40
789.6206839823118
 40
802.5021355703778
 40
814.3128465344803
 40
826.1273602443043
 40
836.8707926131769
 40
847.6183980926997
 40
857.2938145239412
 40
866.9737980327171
 40
875.5803832174228
 40
884.1906675366692
 40
892.80521400362
 40
901.4208001561335
 40
909.5025333981269
 40
917.5859824403168
 40
925.1304703067109
 40
933.214592324782
 40
940.7585326926639
 40
948.8382486437361
 40
956.6455172511576
 40
964.7190969379556
 40
973.0556638770302
 40
981.657197128856
 40
990.7924997183737
 40
1000.458018134234
 40
1010.120555531585
 40
1020.315800635318
 40
1031.582154500913
 40
1031.582154500913
 40
1031.582154500913
 40
1031.582154500913
 10
1025.861061774359
 20
15.50120482964149
 30
0.0
 10
1017.640329536413
 20
15.50119771479708
 30
0.0
 10
1003.342660782429
 20
15.50258913080751
 30
0.0
 10
983.682554997044
 20
15.67080314999746
 30
0.0
 10
967.2396569444803
 20
16.00348862597307
 30
0.0
 10
952.0511858049443
 20
16.53103177870864
 30
0.0
 10
937.7644369891202
 20
17.28240353744726
 30
0.0
 10
924.2069747650159
 20
18.28402311771037
 30
0.0
 10
911.5644438023551
 20
19.52653039846236
 30
0.0
 10
899.4896678915658
 20
21.04681605594767
 30
0.0
 10
888.1710860496554
 20
22.82780638516399
 30
0.0
 10
877.2693630271222
 20
24.9356660179788
 30
0.0
 10
867.1509895666824
 20
27.30066479954651
 30
0.0
 10
857.4849918605274
 20
30.00341051994938
 30
0.0
 10
848.6327267857147
 20
32.93027449784891
 30
0.0
 10
840.2712620636721
 20
36.1738819929452
 30
0.0
 10
832.4210940351083
 20
39.72018659473262
 30
0.0
 10
824.7959514425041
 20
43.73566659305185
 30
0.0
 10
817.6075289269626
 20
48.16339115594715
 30
0.0
 10
810.9007419091582
 20
52.99467947551012
 30
0.0
 10
804.8471013466544
 20
58.08456915623352
 30
0.0
 10
799.1991439941168
 20
63.62203222472544
 30
0.0
 10
794.1229802208331
 20
69.45269361881965
 30
0.0
 10
789.419779667273
 20
75.81053593259252
 30
0.0
 10
785.2764373541683
 20
82.43856544975546
 30
0.0
 10
781.570108827844
 20
89.51941620177688
 30
0.0
 10
778.3482139836332
 20
96.92652419071722
 30
0.0
 10
775.5544004036986
 20
104.7866574919607
 30
0.0
 10
773.1767476986654
 20
113.1506014243634
 30
0.0
 10
771.2142695980284
 20
122.0754630713572
 30
0.0
 10
769.7080071250828
 20
131.4465719897
 30
0.0
 10
768.6488061903055
 20
141.2333293287812
 30
0.0
 10
768.0033146132822
 20
151.5904202662706
 30
0.0
 10
767.8663962610427
 20
158.7445859205253
 30
0.0
 10
767.8662507878644
 20
162.4999997229228
 30
0.0
  0
SPLINE
  5
BB
330
1F
100
AcDbEntity
  8
Default
100
AcDbSpline
210
0.0
220
0.0
230
1.0
 70
     8
 71
     3
 72
    39
 73
    35
 74
     0
 42
0.000000001
 43
0.0000000001
 40
1031.582154500913
 40
1031.582154500913
 40
1031.582154500913
 40
1031.582154500913
 40
1042.424855335081
 40
1052.714502472112
 40
1062.724380791781
 40
1072.103344764798
 40
1081.139273530495
 40
1089.862948382264
 40
1098.310242889852
 40
1106.515638422665
 40
1114.379192410418
 40
1122.170399485875
 40
1129.944019571124
 40
1138.021560488374
 40
1145.909126503299
 40
1153.761649882811
 40
1161.874384555583
 40
1170.299072617957
 40
1178.818056693957
 40
1187.631802244112
 40
1196.935970688335
 40
1206.230057517099
 40
1216.067297218643
 40
1226.734816349691
 40
1237.449160132858
 40
1249.295708334157
 40
1261.209491992302
 40
1274.282867550614
 40
1287.411481455197
 40
1301.655760894217
 40
1316.47253860363
 40
1332.415584399695
 40
1351.144752125187
 40
1375.442941988249
 40
1375.442941988249
 40
1375.442941988249
 40
1375.442941988249
 10
767.8662507878644
 20
162.4999997229214
 30
0.0
 10
767.8663413877217
 20
166.11420401841
 30
0.0
 10
767.996055154489
 20
173.1585733243704
 30
0.0
 10
768.6251787087843
 20
183.52272058299
 30
0.0
 10
769.6818663895182
 20
193.3619856975038
 30
0.0
 10
771.1797116683166
 20
202.7212267003463
 30
0.0
 10
773.1055005493855
 20
211.5638946075956
 30
0.0
 10
775.4764226354875
 20
219.9761479505645
 30
0.0
 10
778.2988660517673
 20
227.9552359893277
 30
0.0
 10
781.5557030240275
 20
235.4560554375329
 30
0.0
 10
785.2484165014413
 20
242.5062805189635
 30
0.0
 10
789.3847912033033
 20
249.1371838421045
 30
0.0
 10
794.0677907053715
 20
255.4832222760508
 30
0.0
 10
799.2672717836117
 20
261.456999505342
 30
0.0
 10
804.9497798742534
 20
267.0101725471822
 30
0.0
 10
811.0500825322967
 20
272.1182302312415
 30
0.0
 10
817.6560602980849
 20
276.866429956622
 30
0.0
 10
824.7728176109511
 20
281.2476076793587
 30
0.0
 10
832.3701023957962
 20
285.2563549444744
 30
0.0
 10
840.4640923838593
 20
288.915917930045
 30
0.0
 10
848.9942699531336
 20
292.2005404213869
 30
0.0
 10
858.0043134326668
 20
295.1522278349468
 30
0.0
 10
867.578121909684
 20
297.8080797218494
 30
0.0
 10
877.717786136433
 20
300.1587954378728
 30
0.0
 10
888.597289019281
 20
302.2458643610123
 30
0.0
 10
899.9528584284545
 20
304.0189863515349
 30
0.0
 10
912.1376650906
 20
305.538124503806
 30
0.0
 10
924.7847008478879
 20
306.7643419308967
 30
0.0
 10
938.2318981408559
 20
307.7447758956467
 30
0.0
 10
952.2766840062807
 20
308.4773917081043
 30
0.0
 10
967.2695285876347
 20
308.9963085479896
 30
0.0
 10
983.7628089752026
 20
309.3312461139922
 30
0.0
 10
1003.419157434563
 20
309.4973638564489
 30
0.0
 10
1017.761672561702
 20
309.4987970623201
 30
0.0
 10
1025.861061774359
 20
309.4987946194445
 30
0.0
  0
SPLINE
  5
BC
330
1F
100
AcDbEntity
  8
Default
100
AcDbSpline
210
0.0
220
0.0
230
1.0
 70
     8
 71
     3
 72
    39
 73
    35
 74
     0
 42
0.000000001
 43
0.0000000001
 40
1375.442941988249
 40
1375.442941988249
 40
1375.442941988249
 40
1375.442941988249
 40
1399.773595521475
 40
1418.529217139306
 40
1435.04618079596
 40
1449.339012869821
 40
1463.596568409827
 40
1476.704083535697
 40
1489.756240535751
 40
1501.672362410113
 40
1513.543591315777
 40
1524.304091918022
 40
1534.506941749819
 40
1544.705184958887
 40
1554.384946817389
 40
1563.497612165571
 40
1571.986985989558
 40
1580.414188051926
 40
1588.809892474128
 40
1596.958266876163
 40
1605.092556591413
 40
1612.872677129004
 40
1620.617033655637
 40
1628.384670818338
 40
1636.23429258085
 40
1644.112422939528
 40
1652.49544501425
 40
1660.909613990838
 40
1669.661315497753
 40
1678.498006270599
 40
1688.129438090596
 40
1697.768530022125
 40
1708.511374863864
 40
1719.303713519483
 40
1719.303713519483
 40
1719.303713519483
 40
1719.303713519483
 10
1025.861061774359
 20
309.4987946194445
 30
0.0
 10
1033.971271152805
 20
309.4987842120651
 30
0.0
 10
1048.333429187634
 20
309.4974202446595
 30
0.0
 10
1068.200706209566
 20
309.3289056464444
 30
0.0
 10
1084.719431604621
 20
308.9899252205825
 30
0.0
 10
1099.733044671933
 20
308.4630750546306
 30
0.0
 10
1113.600775748592
 20
307.738131253508
 30
0.0
 10
1127.038052933069
 20
306.7557425779814
 30
0.0
 10
1139.671690528686
 20
305.5285973710691
 30
0.0
 10
1151.85793701372
 20
304.0059763395256
 30
0.0
 10
1163.237447351275
 20
302.2275864746498
 30
0.0
 10
1173.986829455498
 20
300.1592584789007
 30
0.0
 10
1184.108534452655
 20
297.8166642992882
 30
0.0
 10
1193.774467170485
 20
295.1406405075044
 30
0.0
 10
1202.957433018459
 20
292.1214325229741
 30
0.0
 10
1211.440109667985
 20
288.8344755648893
 30
0.0
 10
1219.347194991694
 20
285.2541256333138
 30
0.0
 10
1226.816633601609
 20
281.3213825839798
 30
0.0
 10
1233.915913056332
 20
276.9661109069793
 30
0.0
 10
1240.607894717085
 20
272.1727262130108
 30
0.0
 10
1246.763753273829
 20
267.0212818959978
 30
0.0
 10
1252.404535214395
 20
261.5014279528826
 30
0.0
 10
1257.515521367915
 20
255.648943191421
 30
0.0
 10
1262.16328935369
 20
249.3932706785924
 30
0.0
 10
1266.331624124243
 20
242.7559932672849
 30
0.0
 10
1270.080760129011
 20
235.6408465626915
 30
0.0
 10
1273.369746717218
 20
228.0959484271775
 30
0.0
 10
1276.217621872847
 20
220.0647618407099
 30
0.0
 10
1278.575990418281
 20
211.7198304708612
 30
0.0
 10
1280.518362463779
 20
202.8531278852351
 30
0.0
 10
1282.007409351241
 20
193.5995545410779
 30
0.0
 10
1283.087326121957
 20
183.650682292467
 30
0.0
 10
1283.724215364278
 20
173.2760578008337
 30
0.0
 10
1283.855775623235
 20
166.0974202470792
 30
0.0
 10
1283.855876492945
 20
162.4999997245421
 30
0.0
  0
SPLINE
  5
BD
330
1F
100
AcDbEntity
  8
Default
100
AcDbSpline
210
0.0
220
0.0
230
1.0
 70
    12
 71
     2
 72
     6
 73
     3
 74
     0
 42
0.000000001
 43
0.0000000001
 40
0.0
 40
0.0
 40
0.0
 40
5.69607393692503
 40
5.69607393692503
 40
5.69607393692503
 10
1025.861061774456
 20
0.0
 30
0.0
 41
1.0
 10
1023.013025447752
 20
-0.0001331402427391
 30
0.0
 41
0.9999999787338095
 10
1020.164987958866
 20
0.0009057500461406
 30
0.0
 41
0.9999999999999896
  0
SPLINE
  5
BE
330
1F
100
AcDbEntity
  8
Default
100
AcDbSpline
210
0.0
220
0.0
230
1.0
 70
    12
 71
     3
 72
   158
 73
   154
 74
     0
 42
0.000000001
 43
0.0000000001
 40
5.69607393692503
 40
5.69607393692503
 40
5.69607393692503
 40
5.69607393692503
 40
11.39322967024571
 40
11.39322967024571
 40
11.39322967024571
 40
26.59468580120057
 40
26.59468580120057
 40
26.59468580120057
 40
45.60705265112634
 40
45.60705265112634
 40
45.60705265112634
 40
68.42304542331241
 40
68.42304542331241
 40
68.42304542331241
 40
91.24423845365205
 40
91.24423845365205
 40
91.24423845365205
 40
110.2802517471906
 40
110.2802517471906
 40
110.2802517471906
 40
125.5390094957704
 40
125.5390094957704
 40
125.5390094957704
 40
135.0997594585163
 40
135.0997594585163
 40
135.0997594585163
 40
142.7675052715728
 40
142.7675052715728
 40
142.7675052715728
 40
148.5335027129833
 40
148.5335027129833
 40
148.5335027129833
 40
154.3061201324563
 40
154.3061201324563
 40
154.3061201324563
 40
161.9949466117898
 40
161.9949466117898
 40
161.9949466117898
 40
171.6008877372513
 40
171.6008877372513
 40
171.6008877372513
 40
181.2130183676417
 40
181.2130183676417
 40
181.2130183676417
 40
188.9180620426176
 40
188.9180620426176
 40
188.9180620426176
 40
194.7141555334101
 40
194.7141555334101
 40
194.7141555334101
 40
199.5602230033362
 40
199.5602230033362
 40
199.5602230033362
 40
203.4489453206704
 40
203.4489453206704
 40
203.4489453206704
 40
207.3315157666905
 40
207.3315157666905
 40
207.3315157666905
 40
212.1741318879334
 40
212.1741318879334
 40
212.1741318879334
 40
219.9069219022681
 40
219.9069219022681
 40
219.9069219022681
 40
227.6380693341025
 40
227.6380693341025
 40
227.6380693341025
 40
235.3909708839472
 40
235.3909708839472
 40
235.3909708839472
 40
240.2597118986334
 40
240.2597118986334
 40
240.2597118986334
 40
244.1739389767819
 40
244.1739389767819
 40
244.1739389767819
 40
247.1239696764921
 40
247.1239696764921
 40
247.1239696764921
 40
250.0743067168333
 40
250.0743067168333
 40
250.0743067168333
 40
253.9933690265891
 40
253.9933690265891
 40
253.9933690265891
 40
258.8747735466553
 40
258.8747735466553
 40
258.8747735466553
 40
264.7167585456254
 40
264.7167585456254
 40
264.7167585456254
 40
270.5566716715377
 40
270.5566716715377
 40
270.5566716715377
 40
275.4317551230264
 40
275.4317551230264
 40
275.4317551230264
 40
279.3445209417109
 40
279.3445209417109
 40
279.3445209417109
 40
282.2888518039067
 40
282.2888518039067
 40
282.2888518039067
 40
285.2433728118251
 40
285.2433728118251
 40
285.2433728118251
 40
289.1759559515809
 40
289.1759559515809
 40
289.1759559515809
 40
294.0668194062809
 40
294.0668194062809
 40
294.0668194062809
 40
299.9116176728109
 40
299.9116176728109
 40
299.9116176728109
 40
305.7425840345856
 40
305.7425840345856
 40
305.7425840345856
 40
311.5709498102712
 40
311.5709498102712
 40
311.5709498102712
 40
316.4341379288831
 40
316.4341379288831
 40
316.4341379288831
 40
320.3320052499277
 40
320.3320052499277
 40
320.3320052499277
 40
324.2354357840516
 40
324.2354357840516
 40
324.2354357840516
 40
329.0905107496075
 40
329.0905107496075
 40
329.0905107496075
 40
334.8819843316755
 40
334.8819843316755
 40
334.8819843316755
 40
340.6427338539921
 40
340.6427338539921
 40
340.6427338539921
 40
346.3793402149715
 40
346.3793402149715
 40
346.3793402149715
 40
352.0966912841055
 40
352.0966912841055
 40
352.0966912841055
 40
357.7976270093967
 40
357.7976270093967
 40
357.7976270093967
 40
363.4815233492699
 40
363.4815233492699
 40
363.4815233492699
 40
364.4700980202719
 40
364.4700980202719
 40
364.4700980202719
 40
364.4700980202719
 10
1020.164987958866
 20
0.0009057500461406
 30
0.0
 41
0.9999999999999433
 10
1018.265934755195
 20
0.0015928421015835
 30
0.0
 41
0.9999999207662495
 10
1016.366883463322
 20
0.0032085012827087
 30
0.0
 41
0.9999999207662682
 10
1014.46783318486
 20
0.0057500351747132
 30
0.0
 41
1.0
 10
1009.400375111977
 20
0.0127680949224214
 30
0.0
 41
1.0
 10
1004.333231815596
 20
0.0282705145747855
 30
0.0
 41
1.0
 10
999.2666320652737
 20
0.0621372535803175
 30
0.0
 41
1.0
 10
992.9292928055765
 20
0.1044980133154638
 30
0.0
 41
1.0
 10
986.5919382636237
 20
0.1755891387951181
 30
0.0
 41
1.0
 10
980.2559945532971
 20
0.2923423964013239
 30
0.0
 41
1.0
 10
972.6520838970836
 20
0.4324606455916183
 30
0.0
 41
1.0
 10
965.0495133534285
 20
0.6383667448836548
 30
0.0
 41
1.0
 10
957.450263384975
 20
0.942335364430022
 30
0.0
 41
1.0
 10
949.8490228451887
 20
1.246383606468384
 30
0.0
 41
1.0
 10
942.2533707768078
 20
1.648455152508262
 30
0.0
 41
1.0
 10
934.6647296752765
 20
2.183862564146693
 30
0.0
 41
1.0
 10
928.334565626392
 20
2.630479646614304
 30
0.0
 41
1.0
 10
922.0134924161712
 20
3.16957961600454
 30
0.0
 41
1.0
 10
915.7014354787014
 20
3.825420174056404
 30
0.0
 41
1.0
 10
910.6416777949389
 20
4.351143299782222
 30
0.0
 41
1.0
 10
905.5925902966542
 20
4.951374824371185
 30
0.0
 41
1.0
 10
900.5525798792366
 20
5.64181972907258
 30
0.0
 41
1.0
 10
897.3949900680013
 20
6.07371614268703
 30
0.0
 41
0.9999537023844377
 10
894.2427094722827
 20
6.542794999554859
 30
0.0
 41
0.9999537023844366
 10
891.0961759213048
 20
7.048991147978284
 30
0.0
 41
1.0
 10
888.5726807618109
 20
7.455084324681932
 30
0.0
 41
0.9999637737793989
 10
886.0535561529735
 20
7.887462276601934
 30
0.0
 41
0.9999637737793987
 10
883.5390758698848
 20
8.346078013481113
 30
0.0
 41
1.0
 10
881.6482636619378
 20
8.691040098873981
 30
0.0
 41
0.9999759209399021
 10
879.7604516385675
 20
9.052060057453408
 30
0.0
 41
0.9999759209399016
 10
877.8757761699889
 20
9.429111810155541
 30
0.0
 41
1.0
 10
875.988936657162
 20
9.806613076636823
 30
0.0
 41
0.9999722915581118
 10
874.1056173263901
 20
10.20130137351568
 30
0.0
 41
0.9999722915581122
 10
872.2259747292026
 20
10.61314389219888
 30
0.0
 41
1.0
 10
869.7223095727082
 20
11.16151322316193
 30
0.0
 41
0.9999428119379071
 10
867.2260417110983
 20
11.74262844588258
 30
0.0
 41
0.9999428119379055
 10
864.737599414537
 20
12.35638986180056
 30
0.0
 41
1.0
 10
861.6284640572665
 20
13.12260073732013
 30
0.0
 41
0.9998904297238322
 10
858.5337308299134
 20
13.94505318403752
 30
0.0
 41
0.9998904297238318
 10
855.4544170048004
 20
14.82347685292753
 30
0.0
 41
1.0
 10
852.3730789002815
 20
15.70249133814343
 30
0.0
 41
0.9998620866152226
 10
849.310256992889
 20
16.64399701692482
 30
0.0
 41
0.9998620866152224
 10
846.2672184950321
 20
17.64760435056683
 30
0.0
 41
1.0
 10
843.8280359331368
 20
18.45228531027234
 30
0.0
 41
0.9998920494596394
 10
841.403728691926
 20
19.30072942592116
 30
0.0
 41
0.999892049459639
 10
838.9950818872298
 20
20.19266192751108
 30
0.0
 41
1.0
 10
837.1832802751569
 20
20.8637707781984
 30
0.0
 41
0.9999282672451702
 10
835.3815182701042
 20
21.56138517606871
 30
0.0
 41
0.9999282672451698
 10
833.5901836081212
 20
22.28535499571423
 30
0.0
 41
1.0
 10
832.0924999974689
 20
22.8907206515361
 30
0.0
 41
0.9999427644822043
 10
830.6028773182992
 20
23.51565908735958
 30
0.0
 41
0.9999427644822043
 10
829.1215713485884
 20
24.16006299715974
 30
0.0
 41
1.0
 10
827.9329357522033
 20
24.67722214575523
 30
0.0
 41
0.9999595085406504
 10
826.7500721546969
 20
25.20745028124141
 30
0.0
 41
0.99995950854065
 10
825.5731242436871
 20
25.75068299448528
 30
0.0
 41
1.0
 10
824.398041269888
 20
26.29306856877358
 30
0.0
 41
0.9999558342177866
 10
823.2292793046767
 20
26.84894407208865
 30
0.0
 41
0.9999558342177877
 10
822.066993205914
 20
27.4182358524013
 30
0.0
 41
1.0
 10
820.6172478038004
 20
28.12823114074973
 30
0.0
 41
0.9999247581685775
 10
819.1783328083785
 20
28.8599268947139
 30
0.0
 41
0.9999247581685766
 10
817.7505730194415
 20
29.61315795190797
 30
0.0
 41
1.0
 10
815.4702762524147
 20
30.8155334491337
 30
0.0
 41
0.9997809656755093
 10
813.221547865905
 20
32.07596227526693
 30
0.0
 41
0.9997809656755093
 10
811.0058655060216
 20
33.39361619877802
 30
0.0
 41
1.0
 10
808.7905630975756
 20
34.71093235571136
 30
0.0
 41
0.9997434379552265
 10
806.6126563056219
 20
36.08919525652039
 30
0.0
 41
0.9997434379552265
 10
804.4738214348198
 20
37.52734407136077
 30
0.0
 41
1.0
 10
802.3289665182577
 20
38.9696330265023
 30
0.0
 41
0.9997019961363012
 10
800.2281900229146
 20
40.47540132203819
 30
0.0
 41
0.9997019961363012
 10
798.1733700673291
 20
42.04330278365872
 30
0.0
 41
1.0
 10
796.8832702332015
 20
43.02810331149813
 30
0.0
 41
0.9998705903234982
 10
795.6128239296239
 20
44.03813096031487
 30
0.0
 41
0.9998705903234977
 10
794.362524380731
 20
45.07299360805507
 30
0.0
 41
1.0
 10
793.3573884147425
 20
45.90498297622689
 30
0.0
 41
0.9999107166242326
 10
792.3660030497768
 20
46.75331055269889
 30
0.0
 41
0.9999107166242318
 10
791.3886338285268
 20
47.61774911282167
 30
0.0
 41
1.0
 10
790.6520642615281
 20
48.26927102097248
 30
0.0
 41
0.9999473009144299
 10
789.923744780978
 20
48.93000262917759
 30
0.0
 41
0.9999473009144304
 10
789.2037905321894
 20
49.59983947758241
 30
0.0
 41
1.0
 10
788.4837722785983
 20
50.26975867561154
 30
0.0
 41
0.9999455980436671
 10
787.7723709612616
 20
50.94882139958082
 30
0.0
 41
0.9999455980436668
 10
787.0697026850501
 20
51.63691682246834
 30
0.0
 41
1.0
 10
786.1362654902936
 20
52.55093363580218
 30
0.0
 41
0.9998999849323475
 10
785.2188001666465
 20
53.48098154398566
 30
0.0
 41
0.9998999849323471
 10
784.3175819951775
 20
54.42678149060549
 30
0.0
 41
1.0
 10
783.1950566590932
 20
55.60488525412078
 30
0.0
 41
0.9998399428400755
 10
782.0986148461218
 20
56.80730238578687
 30
0.0
 41
0.999839942840075
 10
781.028783036348
 20
58.03345551919037
 30
0.0
 41
1.0
 10
779.7483275565544
 20
59.50090751255049
 30
0.0
 41
0.9997643149135797
 10
778.5073416022413
 20
61.00188567686448
 30
0.0
 41
0.9997643149135795
 10
777.3067026190539
 20
62.53532873762704
 30
0.0
 41
1.0
 10
776.1065928352572
 20
64.06831215781564
 30
0.0
 41
0.9997616845486465
 10
774.9478980428857
 20
65.63283382205324
 30
0.0
 41
0.9997616845486465
 10
773.8314466465562
 20
67.22777518127987
 30
0.0
 41
1.0
 10
772.8994792420706
 20
68.55916110695836
 30
0.0
 41
0.9998347960310404
 10
771.9973807182459
 20
69.91096359971834
 30
0.0
 41
0.9998347960310402
 10
771.1255981658524
 20
71.28251269014865
 30
0.0
 41
1.0
 10
770.4259294360491
 20
72.38329603771241
 30
0.0
 41
0.999895076059585
 10
769.7458999447761
 20
73.49631903870457
 30
0.0
 41
0.999895076059585
 10
769.0857237461556
 20
74.62123134484804
 30
0.0
 41
1.0
 10
768.588959168061
 20
75.46770206091828
 30
0.0
 41
0.9999417148794114
 10
768.1034309028744
 20
76.32066748982961
 30
0.0
 41
0.9999417148794101
 10
767.6292238478141
 20
77.1799784860033
 30
0.0
 41
1.0
 10
767.1533763380215
 20
78.04226308596479
 30
0.0
 41
0.9999431903322319
 10
766.6888261301536
 20
78.91068619037738
 30
0.0
 41
0.9999431903322323
 10
766.2356523970418
 20
79.78509979475706
 30
0.0
 41
1.0
 10
765.6324933674162
 20
80.94902615454222
 30
0.0
 41
0.9999018268253891
 10
765.0493972284833
 20
82.12313189031744
 30
0.0
 41
0.9999018268253889
 10
764.4865357134349
 20
83.30707120502026
 30
0.0
 41
1.0
 10
763.7866073347947
 20
84.7795938581739
 30
0.0
 41
0.9998554143767892
 10
763.1174970724137
 20
86.2663736522431
 30
0.0
 41
0.9998554143767888
 10
762.4794951574643
 20
87.76676568627854
 30
0.0
 41
1.0
 10
761.7170879109784
 20
89.55986397505938
 30
0.0
 41
0.9998088913018943
 10
760.9978304971861
 20
91.3707021940697
 30
0.0
 41
0.9998088913018944
 10
760.3221352851319
 20
93.19824214250594
 30
0.0
 41
1.0
 10
759.6481222330902
 20
95.02146899657416
 30
0.0
 41
0.9998271132732433
 10
759.0158036535179
 20
96.85957208662271
 30
0.0
 41
0.9998271132732432
 10
758.4255075048836
 20
98.71159806177139
 30
0.0
 41
1.0
 10
757.8354347072063
 20
100.562767090233
 30
0.0
 41
0.9998449857737906
 10
757.2854169725289
 20
102.4262297729919
 30
0.0
 41
0.9998449857737913
 10
756.7757100825709
 20
104.3011195203702
 30
0.0
 41
1.0
 10
756.3503355885931
 20
105.8654585574131
 30
0.0
 41
0.9999026666973199
 10
755.9517536565314
 20
107.4368377371073
 30
0.0
 41
0.9999026666973186
 10
755.5800806722722
 20
109.014798216877
 30
0.0
 41
1.0
 10
755.2821228463273
 20
110.2794997892125
 30
0.0
 41
0.9999426853166916
 10
755.0007739876818
 20
111.5479995932523
 30
0.0
 41
0.9999426853166918
 10
754.7360824725988
 20
112.8200795180026
 30
0.0
 41
1.0
 10
754.4710251267209
 20
114.0939742896289
 30
0.0
 41
0.999947514833722
 10
754.2219733273582
 20
115.3710946782436
 30
0.0
 41
0.9999475148337216
 10
753.9889662890871
 20
116.6512395942186
 30
0.0
 41
1.0
 10
753.6992726883726
 20
118.2435193436454
 30
0.0
 41
0.9999261084280702
 10
753.4333175861385
 20
119.8399356635085
 30
0.0
 41
0.9999261084280696
 10
753.1911599379059
 20
121.4401346686738
 30
0.0
 41
1.0
 10
752.9024383509749
 20
123.3490015849064
 30
0.0
 41
0.999909627025411
 10
752.6451856473211
 20
125.2623635749934
 30
0.0
 41
0.9999096270254101
 10
752.4194715730184
 20
127.1797018902912
 30
0.0
 41
1.0
 10
752.195023419709
 20
129.0868602420633
 30
0.0
 41
0.9999266395438194
 10
751.9988921469637
 20
130.9971383569221
 30
0.0
 41
0.9999266395438189
 10
751.8311209196205
 20
132.9101158182461
 30
0.0
 41
1.0
 10
751.6640338753767
 20
134.8150590648916
 30
0.0
 41
0.9999425906825608
 10
751.5219603275372
 20
136.7220309997399
 30
0.0
 41
0.9999425906825603
 10
751.404924745136
 20
138.6307031889192
 30
0.0
 41
1.0
 10
751.2883830177381
 20
140.5329607091041
 30
0.0
 41
0.9999575454730456
 10
751.1933163876163
 20
142.4364123063773
 30
0.0
 41
0.9999575454730461
 10
751.1197369627978
 20
144.3408155503275
 30
0.0
 41
1.0
 10
751.0463487695515
 20
146.2397373523511
 30
0.0
 41
0.9999710589066078
 10
750.9906575356487
 20
148.1392605355674
 30
0.0
 41
0.9999710589066076
 10
750.9526680963838
 20
150.0392201771421
 30
0.0
 41
1.0
 10
750.9151875550018
 20
151.9334959404696
 30
0.0
 41
0.9999847783726638
 10
750.8905085155731
 20
153.8279817291536
 30
0.0
 41
0.9999847783726636
 10
750.8786321050632
 20
155.7225910317238
 30
0.0
 41
1.0
 10
750.8732134959743
 20
157.2780381280229
 30
0.0
 41
1.0
 10
750.8677948868853
 20
158.8334852243219
 30
0.0
 41
1.0
 10
750.8623153090804
 20
160.3889323358524
 30
0.0
 41
1.0
  0
SPLINE
  5
BF
330
1F
100
AcDbEntity
  8
Default
100
AcDbSpline
210
0.0
220
0.0
230
1.0
 70
    12
 71
     3
 72
     8
 73
     4
 74
     0
 42
0.000000001
 43
0.0000000001
 40
364.4700980202719
 40
364.4700980202719
 40
364.4700980202719
 40
364.4700980202719
 40
365.2320686154217
 40
365.2320686154217
 40
365.2320686154217
 40
365.2320686154217
 10
750.8623153090804
 20
160.3889323358524
 30
0.0
 41
1.0
 10
750.8625681667036
 20
160.1349366145229
 30
0.0
 41
1.0
 10
750.862961407171
 20
159.8809382689571
 30
0.0
 41
1.0
 10
750.8635380150776
 20
159.6269374978372
 30
0.0
 41
1.0
  0
SPLINE
  5
C0
330
1F
100
AcDbEntity
  8
Default
100
AcDbSpline
210
0.0
220
0.0
230
1.0
 70
    12
 71
     3
 72
     8
 73
     4
 74
     0
 42
0.000000001
 43
0.0000000001
 40
365.2320686154217
 40
365.2320686154217
 40
365.2320686154217
 40
365.2320686154217
 40
365.7068436809857
 40
365.7068436809857
 40
365.7068436809857
 40
365.7068436809857
 10
750.8635380150776
 20
159.6269374978372
 30
0.0
 41
1.0
 10
750.8639498045262
 20
159.4686810716689
 30
0.0
 41
1.0
 10
750.8643129765022
 20
159.3104236530755
 30
0.0
 41
1.0
 10
750.8647190393425
 20
159.1521654092111
 30
0.0
 41
1.0
  0
SPLINE
  5
C1
330
1F
100
AcDbEntity
  8
Default
100
AcDbSpline
210
0.0
220
0.0
230
1.0
 70
    12
 71
     2
 72
     6
 73
     3
 74
     0
 42
0.000000001
 43
0.0000000001
 40
0.0
 40
0.0
 40
0.0
 40
5.702591308103269
 40
5.702591308103269
 40
5.702591308103269
 10
1025.861061774456
 20
324.9999994490863
 30
0.0
 41
1.0
 10
1028.71235678587
 20
325.0001311054648
 30
0.0
 41
0.9999999788497863
 10
1031.563652968974
 20
324.9990880010015
 30
0.0
 41
0.99999999999999
  0
SPLINE
  5
C2
330
1F
100
AcDbEntity
  8
Default
100
AcDbSpline
210
0.0
220
0.0
230
1.0
 70
    12
 71
     3
 72
   152
 73
   148
 74
     0
 42
0.000000001
 43
0.0000000001
 40
5.702591308103269
 40
5.702591308103269
 40
5.702591308103269
 40
5.702591308103269
 40
11.39323314424901
 40
11.39323314424901
 40
11.39323314424901
 40
22.79319822341499
 40
22.79319822341499
 40
22.79319822341499
 40
34.1979682713287
 40
34.1979682713287
 40
34.1979682713287
 40
49.40254548962481
 40
49.40254548962481
 40
49.40254548962481
 40
68.4018717931539
 40
68.4018717931539
 40
68.4018717931539
 40
91.19226810022732
 40
91.19226810022732
 40
91.19226810022732
 40
110.1871138249175
 40
110.1871138249175
 40
110.1871138249175
 40
125.4000952902259
 40
125.4000952902259
 40
125.4000952902259
 40
136.8322458573906
 40
136.8322458573906
 40
136.8322458573906
 40
148.29837788259
 40
148.29837788259
 40
148.29837788259
 40
157.8922425293816
 40
157.8922425293816
 40
157.8922425293816
 40
165.6025580207508
 40
165.6025580207508
 40
165.6025580207508
 40
171.4124796393117
 40
171.4124796393117
 40
171.4124796393117
 40
177.2436903101343
 40
177.2436903101343
 40
177.2436903101343
 40
183.0659278167349
 40
183.0659278167349
 40
183.0659278167349
 40
188.8781238716047
 40
188.8781238716047
 40
188.8781238716047
 40
196.6198912654967
 40
196.6198912654967
 40
196.6198912654967
 40
204.363235619651
 40
204.363235619651
 40
204.363235619651
 40
212.1226907082442
 40
212.1226907082442
 40
212.1226907082442
 40
217.96427667509
 40
217.96427667509
 40
217.96427667509
 40
222.8548063552249
 40
222.8548063552249
 40
222.8548063552249
 40
226.7867695453263
 40
226.7867695453263
 40
226.7867695453263
 40
230.7344541116358
 40
230.7344541116358
 40
230.7344541116358
 40
235.6529341486661
 40
235.6529341486661
 40
235.6529341486661
 40
243.4943026911788
 40
243.4943026911788
 40
243.4943026911788
 40
251.3257166864893
 40
251.3257166864893
 40
251.3257166864893
 40
258.1963792181487
 40
258.1963792181487
 40
258.1963792181487
 40
262.1395458633684
 40
262.1395458633684
 40
262.1395458633684
 40
265.1089145473108
 40
265.1089145473108
 40
265.1089145473108
 40
268.0898401569478
 40
268.0898401569478
 40
268.0898401569478
 40
272.0527205165684
 40
272.0527205165684
 40
272.0527205165684
 40
276.9803097862807
 40
276.9803097862807
 40
276.9803097862807
 40
282.8682877974355
 40
282.8682877974355
 40
282.8682877974355
 40
288.7427272147334
 40
288.7427272147334
 40
288.7427272147334
 40
294.6184554556101
 40
294.6184554556101
 40
294.6184554556101
 40
299.5250970953156
 40
299.5250970953156
 40
299.5250970953156
 40
303.4619845688398
 40
303.4619845688398
 40
303.4619845688398
 40
306.4232931284152
 40
306.4232931284152
 40
306.4232931284152
 40
309.3799048889102
 40
309.3799048889102
 40
309.3799048889102
 40
313.3068971107656
 40
313.3068971107656
 40
313.3068971107656
 40
318.1965796582381
 40
318.1965796582381
 40
318.1965796582381
 40
325.9898079490532
 40
325.9898079490532
 40
325.9898079490532
 40
333.7634831475885
 40
333.7634831475885
 40
333.7634831475885
 40
341.5313057801975
 40
341.5313057801975
 40
341.5313057801975
 40
347.3575074852589
 40
347.3575074852589
 40
347.3575074852589
 40
353.1860047961387
 40
353.1860047961387
 40
353.1860047961387
 40
359.002132822819
 40
359.002132822819
 40
359.002132822819
 40
363.8289805111431
 40
363.8289805111431
 40
363.8289805111431
 40
364.7308867952446
 40
364.7308867952446
 40
364.7308867952446
 40
364.7308867952446
 10
1031.563652968974
 20
324.9990880010015
 30
0.0
 41
0.999999999999944
 10
1033.46053487792
 20
324.9983940539566
 30
0.0
 41
0.9999999215574664
 10
1035.357414872051
 20
324.9967818250071
 30
0.0
 41
0.9999999215574851
 10
1037.254293860888
 20
324.9942494090773
 30
0.0
 41
1.0
 10
1041.054281577787
 20
324.9897124963184
 30
0.0
 41
0.9999989053087467
 10
1044.854254833167
 20
324.9782892509385
 30
0.0
 41
0.9999989053087475
 10
1048.654201147641
 20
324.9599797104534
 30
0.0
 41
1.0
 10
1052.45575175744
 20
324.9415682546723
 30
0.0
 41
0.9999972682048509
 10
1056.257234082158
 20
324.9122739646827
 30
0.0
 41
0.9999972682048511
 10
1060.058616967182
 20
324.8720970805623
 30
0.0
 41
1.0
 10
1065.126288036094
 20
324.8177122109032
 30
0.0
 41
1.0
 10
1070.194094237587
 20
324.7406814393503
 30
0.0
 41
1.0
 10
1075.261069147194
 20
324.6320944137204
 30
0.0
 41
1.0
 10
1081.59238041401
 20
324.4964122224593
 30
0.0
 41
1.0
 10
1087.923324836928
 20
324.3114413284763
 30
0.0
 41
1.0
 10
1094.251100357666
 20
324.0584943898217
 30
0.0
 41
1.0
 10
1101.841742273582
 20
323.7550655420755
 30
0.0
 41
1.0
 10
1109.427859569989
 20
323.353820328597
 30
0.0
 41
1.0
 10
1117.005952953765
 20
322.8197638777481
 30
0.0
 41
1.0
 10
1123.322231513034
 20
322.3746322147946
 30
0.0
 41
1.0
 10
1129.630163941345
 20
321.8374308738969
 30
0.0
 41
1.0
 10
1135.928455671742
 20
321.1841638199734
 30
0.0
 41
1.0
 10
1140.972887462345
 20
320.6609487585526
 30
0.0
 41
1.0
 10
1146.007452664124
 20
320.0636616967089
 30
0.0
 41
1.0
 10
1151.032324631539
 20
319.3769520405395
 30
0.0
 41
1.0
 10
1154.808227627198
 20
318.862075390526
 30
0.0
 41
0.9999326190429629
 10
1158.576428812358
 20
318.29356749655
 30
0.0
 41
0.9999326190429627
 10
1162.336166472013
 20
317.67154327843
 30
0.0
 41
1.0
 10
1166.107368331345
 20
317.046479165036
 30
0.0
 41
1.0
 10
1169.866798073194
 20
316.3646738096951
 30
0.0
 41
1.0
 10
1173.61566516852
 20
315.6169776419155
 30
0.0
 41
1.0
 10
1176.752151279961
 20
314.9923315538622
 30
0.0
 41
0.9999205589736142
 10
1179.878620821178
 20
314.3193411598572
 30
0.0
 41
0.9999205589736142
 10
1182.994328682324
 20
313.5981668490436
 30
0.0
 41
1.0
 10
1185.498272113155
 20
313.0184080893317
 30
0.0
 41
0.9999375678822188
 10
1187.994046878576
 20
312.4044363924633
 30
0.0
 41
0.9999375678822188
 10
1190.481185529073
 20
311.7563667530989
 30
0.0
 41
1.0
 10
1192.355262021343
 20
311.2679297309814
 30
0.0
 41
0.9999581757791236
 10
1194.223749819925
 20
310.7585312916342
 30
0.0
 41
0.999958175779124
 10
1196.086414480676
 20
310.2282353506351
 30
0.0
 41
1.0
 10
1197.955903251326
 20
309.6959692604075
 30
0.0
 41
0.9999517287579017
 10
1199.818851559824
 20
309.1412449556779
 30
0.0
 41
0.999951728757901
 10
1201.674989625683
 20
308.5641427681392
 30
0.0
 41
1.0
 10
1203.528269157262
 20
307.9878988213759
 30
0.0
 41
0.9999448491138583
 10
1205.373983393312
 20
307.38786459969
 30
0.0
 41
0.9999448491138583
 10
1207.211826955506
 20
306.7641393803392
 30
0.0
 41
1.0
 10
1209.046528005156
 20
306.1415475669947
 30
0.0
 41
0.999937430724929
 10
1210.872527148214
 20
305.4938781782003
 30
0.0
 41
0.9999374307249286
 10
1212.689481630352
 20
304.8212527865688
 30
0.0
 41
1.0
 10
1215.109863768503
 20
303.925672409188
 30
0.0
 41
0.9998688236598113
 10
1217.512004400558
 20
302.9822561220351
 30
0.0
 41
0.9998688236598107
 10
1219.894958214465
 20
301.9913751867963
 30
0.0
 41
1.0
 10
1222.278434190937
 20
301.000292404238
 30
0.0
 41
0.9998425222807838
 10
1224.639806715916
 20
299.9576406835812
 30
0.0
 41
0.9998425222807833
 10
1226.977960198718
 20
298.8639126080697
 30
0.0
 41
1.0
 10
1229.321030335849
 20
297.7679287008725
 30
0.0
 41
0.9998126483301234
 10
1231.637460574404
 20
296.6167078956961
 30
0.0
 41
0.9998126483301243
 10
1233.925948953158
 20
295.4108972419614
 30
0.0
 41
1.0
 10
1235.648638186144
 20
294.5029457980358
 30
0.0
 41
0.9998775287937917
 10
1237.353608102391
 20
293.5621420976463
 30
0.0
 41
0.999877528793792
 10
1239.040232272731
 20
292.5888318048846
 30
0.0
 41
1.0
 10
1240.452196836182
 20
291.7739169828635
 30
0.0
 41
0.9999042434357539
 10
1241.850147070738
 20
290.9351886375093
 30
0.0
 41
0.9999042434357539
 10
1243.233681387662
 20
290.0728877100568
 30
0.0
 41
1.0
 10
1244.345998037694
 20
289.3795745733345
 30
0.0
 41
0.9999321860612198
 10
1245.44831285791
 20
288.6704670549557
 30
0.0
 41
0.9999321860612194
 10
1246.540401591381
 20
287.9457094170412
 30
0.0
 41
1.0
 10
1247.636848952491
 20
287.2180354790579
 30
0.0
 41
0.9999267099490614
 10
1248.722386109021
 20
286.4741838423052
 30
0.0
 41
0.9999267099490616
 10
1249.796774383749
 20
285.7143180575555
 30
0.0
 41
1.0
 10
1251.135404413199
 20
284.7675653229482
 30
0.0
 41
0.9998762476544527
 10
1252.455544739839
 20
283.7951967641133
 30
0.0
 41
0.9998762476544523
 10
1253.756705252283
 20
282.7975733797199
 30
0.0
 41
1.0
 10
1255.831666698938
 20
281.2073593593307
 30
0.0
 41
0.9996561519867281
 10
1257.854490572447
 20
279.5513312156962
 30
0.0
 41
0.9996561519867281
 10
1259.823090240898
 20
277.8311972147768
 30
0.0
 41
1.0
 10
1261.789147324308
 20
276.1131248557179
 30
0.0
 41
0.9996197216368841
 10
1263.696061168032
 20
274.3296359494433
 30
0.0
 41
0.9996197216368837
 10
1265.541656297843
 20
272.4827651626792
 30
0.0
 41
1.0
 10
1267.160618168444
 20
270.8623581489894
 30
0.0
 41
0.9996864964074973
 10
1268.729130321869
 20
269.1930690628723
 30
0.0
 41
0.9996864964074971
 10
1270.245717555533
 20
267.476467888703
 30
0.0
 41
1.0
 10
1271.115911590181
 20
266.4912957591639
 30
0.0
 41
0.9998937028269788
 10
1271.96837483261
 20
265.4907418110598
 30
0.0
 41
0.9998937028269779
 10
1272.802835439518
 20
264.4751251125583
 30
0.0
 41
1.0
 10
1273.431216100968
 20
263.7103497795562
 30
0.0
 41
0.9999385585990244
 10
1274.049156036173
 20
262.9371138504025
 30
0.0
 41
0.9999385585990234
 10
1274.656541343844
 20
262.1555598511932
 30
0.0
 41
1.0
 10
1275.266265312536
 20
261.370943956894
 30
0.0
 41
0.9999379564458809
 10
1275.865228294098
 20
260.5780828301478
 30
0.0
 41
0.9999379564458811
 10
1276.45331880315
 20
259.777124046722
 30
0.0
 41
1.0
 10
1277.235107080106
 20
258.712260608429
 30
0.0
 41
0.9998903094532558
 10
1277.997450543323
 20
257.6333910628914
 30
0.0
 41
0.9998903094532556
 10
1278.740098327187
 20
256.54087043548
 30
0.0
 41
1.0
 10
1279.66359890636
 20
255.1823771067563
 30
0.0
 41
0.9998319527099436
 10
1280.556366228408
 20
253.803492067097
 30
0.0
 41
0.9998319527099432
 10
1281.41795021195
 20
252.4049104701848
 30
0.0
 41
1.0
 10
1282.447330183571
 20
250.7335907322292
 30
0.0
 41
0.9997661218905772
 10
1283.432082359915
 20
249.0355931045407
 30
0.0
 41
0.9997661218905774
 10
1284.371515805055
 20
247.3121089605442
 30
0.0
 41
1.0
 10
1285.308807692144
 20
245.592611169717
 30
0.0
 41
0.9997780741785241
 10
1286.201423634275
 20
243.8495031655699
 30
0.0
 41
0.9997780741785243
 10
1287.048769347865
 20
242.083945470131
 30
0.0
 41
1.0
 10
1287.896192039739
 20
240.3179630355644
 30
0.0
 41
0.999791775528274
 10
1288.699215472522
 20
238.5313538045618
 30
0.0
 41
0.9997917755282729
 10
1289.457338018818
 20
236.7252338244119
 30
0.0
 41
1.0
 10
1290.090478321082
 20
235.2170867258293
 30
0.0
 41
0.9998655741151948
 10
1290.69320621497
 20
233.6965297886364
 30
0.0
 41
0.9998655741151949
 10
1291.265278633785
 20
232.1641762194671
 30
0.0
 41
1.0
 10
1291.724320771414
 20
230.9347291654745
 30
0.0
 41
0.9999190464777532
 10
1292.164148065489
 20
229.6982779152916
 30
0.0
 41
0.999919046477753
 10
1292.584653699299
 20
228.4551227541695
 30
0.0
 41
1.0
 10
1292.900975777342
 20
227.520053745543
 30
0.0
 41
0.9999572334951741
 10
1293.206686264987
 20
226.5814618184018
 30
0.0
 41
0.9999572334951739
 10
1293.501745939727
 20
225.6394673936341
 30
0.0
 41
1.0
 10
1293.796329082204
 20
224.6989655923609
 30
0.0
 41
0.9999596477128122
 10
1294.080546600246
 20
223.7552795913702
 30
0.0
 41
0.9999596477128124
 10
1294.354364087375
 20
222.8085236303269
 30
0.0
 41
1.0
 10
1294.718025000164
 20
221.5510103781171
 30
0.0
 41
0.9999331003494013
 10
1295.063834895589
 20
220.2884715251701
 30
0.0
 41
0.9999331003494008
 10
1295.391724369961
 20
219.0211604617097
 30
0.0
 41
1.0
 10
1295.799901643325
 20
217.4431239845975
 30
0.0
 41
0.9999048557674747
 10
1296.181361076982
 20
215.8584169107002
 30
0.0
 41
0.9999048557674747
 10
1296.535993789938
 20
214.2674915672322
 30
0.0
 41
1.0
 10
1297.100724301147
 20
211.7315948358563
 30
0.0
 41
0.9997888315022102
 10
1297.601453645389
 20
209.18228847798
 30
0.0
 41
0.9997888315022084
 10
1298.037864607869
 20
206.6211874931846
 30
0.0
 41
1.0
 10
1298.47305454999
 20
204.0665407276757
 30
0.0
 41
0.9998268125869069
 10
1298.849904836696
 20
201.5026385759432
 30
0.0
 41
0.9998268125869063
 10
1299.168219670804
 20
198.9308131447301
 30
0.0
 41
1.0
 10
1299.487332219151
 20
196.3612482260437
 30
0.0
 41
1.0
 10
1299.751000439531
 20
193.7856706720267
 30
0.0
 41
1.0
 10
1299.966905649394
 20
191.2054325804233
 30
0.0
 41
1.0
 10
1300.12829792888
 20
189.2700277988476
 30
0.0
 41
0.9999432590413261
 10
1300.264425882019
 20
187.3326821103349
 30
0.0
 41
0.9999432590413251
 10
1300.375266336712
 20
185.3937252954399
 30
0.0
 41
1.0
 10
1300.486041540555
 20
183.4540131252337
 30
0.0
 41
0.9999585142599332
 10
1300.575170681825
 20
181.5131858672822
 30
0.0
 41
0.9999585142599329
 10
1300.642642667752
 20
179.5714850715499
 30
0.0
 41
1.0
 10
1300.709929665688
 20
177.633917257237
 30
0.0
 41
0.9999726794915863
 10
1300.759672779757
 20
175.695819685453
 30
0.0
 41
0.9999726794915861
 10
1300.791867932932
 20
173.7573512056307
 30
0.0
 41
1.0
 10
1300.818477429383
 20
172.1486143118237
 30
0.0
 41
0.9999903986558873
 10
1300.836452581195
 20
170.5397577760457
 30
0.0
 41
0.9999903986558875
 10
1300.845792870616
 20
168.930827939853
 30
0.0
 41
1.0
 10
1300.849908309455
 20
167.7739475166123
 30
0.0
 41
1.0
 10
1300.854023748293
 20
166.6170670933714
 30
0.0
 41
1.0
 10
1300.858139187132
 20
165.4601866701307
 30
0.0
 41
1.0
  0
SPLINE
  5
C3
330
1F
100
AcDbEntity
  8
Default
100
AcDbSpline
210
0.0
220
0.0
230
1.0
 70
    12
 71
     2
 72
     8
 73
     5
 74
     0
 42
0.000000001
 43
0.0000000001
 40
0.0
 40
0.0
 40
0.0
 40
6.999798065949677
 40
6.999798065949677
 40
12.62376933459911
 40
12.62376933459911
 40
12.62376933459911
 10
1025.861061774125
 20
306.92429361635
 30
0.0
 41
1.0
 10
1022.361162415888
 20
306.9244983485246
 30
0.0
 41
0.9999998580315507
 10
1018.861264826966
 20
306.9209731874259
 30
0.0
 41
1.0
 10
1016.04928023732
 20
306.9180792974415
 30
0.0
 41
0.9999997629371504
 10
1013.23730229942
 20
306.9113129269215
 30
0.0
 41
1.0
  0
SPLINE
  5
C4
330
1F
100
AcDbEntity
  8
Default
100
AcDbSpline
210
0.0
220
0.0
230
1.0
 70
    12
 71
     3
 72
     8
 73
     4
 74
     0
 42
0.000000001
 43
0.0000000001
 40
8.487699958285691
 40
8.487699958285691
 40
8.487699958285691
 40
8.487699958285691
 40
9.487699664551017
 40
9.487699664551017
 40
9.487699664551017
 40
9.487699664551017
 10
822.5406481422211
 20
530.5326460337092
 30
0.0
 41
1.0
 10
819.400006618982
 20
532.8471011765556
 30
0.0
 41
1.0
 10
816.2592252364945
 20
535.1616563414146
 30
0.0
 41
1.0
 10
813.1184438540074
 20
537.4762115062736
 30
0.0
 41
1.0
  0
SPLINE
  5
C5
330
1F
100
AcDbEntity
  8
Default
100
AcDbSpline
210
0.0
220
0.0
230
1.0
 70
    12
 71
     2
 72
     6
 73
     3
 74
     0
 42
0.000000001
 43
0.0000000001
 40
0.0
 40
0.0
 40
0.0
 40
0.4218267957784127
 40
0.4218267957784127
 40
0.4218267957784127
 10
1298.281233325104
 20
665.8564604729169
 30
0.0
 41
1.0
 10
1298.070378097722
 20
665.862130016387
 30
0.0
 41
0.9998717311683936
 10
1297.859449461324
 20
665.8610432849698
 30
0.0
 41
1.0
  0
SPLINE
  5
C6
330
1F
100
AcDbEntity
  8
Default
100
AcDbSpline
210
0.0
220
0.0
230
1.0
 70
    12
 71
     3
 72
     8
 73
     4
 74
     0
 42
0.000000001
 43
0.0000000001
 40
67.97988902434409
 40
67.97988902434409
 40
67.97988902434409
 40
67.97988902434409
 40
68.97988902441984
 40
68.97988902441984
 40
68.97988902441984
 40
68.97988902441984
 10
1234.637361924618
 20
534.4430198589082
 30
0.0
 41
1.0
 10
1230.456913309228
 20
531.5822143152063
 30
0.0
 41
1.0
 10
1226.276758566277
 20
528.7216298838369
 30
0.0
 41
1.0
 10
1222.096603823327
 20
525.8610454524675
 30
0.0
 41
1.0
  0
SPLINE
  5
C7
330
1F
100
AcDbEntity
  8
Default
100
AcDbSpline
210
0.0
220
0.0
230
1.0
 70
    12
 71
     3
 72
     8
 73
     4
 74
     0
 42
0.000000001
 43
0.0000000001
 40
-0.0074551490774407
 40
-0.0074551490774407
 40
-0.0074551490774407
 40
-0.0074551490774407
 40
-0.0071792487756287
 40
-0.0071792487756287
 40
-0.0071792487756287
 40
-0.0071792487756287
 10
1300.144882068746
 20
647.9851198007069
 30
0.0
 41
1.0
 10
1300.155674960707
 20
648.0812343445395
 30
0.0
 41
1.0
 10
1300.166395672492
 20
648.1773875757633
 30
0.0
 41
1.0
 10
1300.177044169253
 20
648.273579484199
 30
0.0
 41
1.0
  0
SPLINE
  5
C8
330
1F
100
AcDbEntity
  8
Default
100
AcDbSpline
210
0.0
220
0.0
230
1.0
 70
    12
 71
     2
 72
     6
 73
     3
 74
     0
 42
0.000000001
 43
0.0000000001
 40
0.0
 40
0.0
 40
0.0
 40
6.843068275392701
 40
6.843068275392701
 40
6.843068275392701
 10
1299.248251899276
 20
641.1630219028735
 30
0.0
 41
1.0
 10
1299.758420806411
 20
644.5467181278925
 30
0.0
 41
0.9998221586852448
 10
1300.140625223975
 20
647.9472463574779
 30
0.0
 41
1.0
  0
SPLINE
  5
C9
330
1F
100
AcDbEntity
  8
Default
100
AcDbSpline
210
0.0
220
0.0
230
1.0
 70
    12
 71
     3
 72
    18
 73
    14
 74
     0
 42
0.000000001
 43
0.0000000001
 40
0.0
 40
0.0
 40
0.0
 40
0.0
 40
0.4701897699291335
 40
0.9316942864891471
 40
1.795160700538427
 40
2.528560162765999
 40
2.830544934708601
 40
3.082846247691759
 40
3.082846247691759
 40
3.082846247691759
 40
3.942724789219257
 40
3.942724789219257
 40
4.802590443310638
 40
4.802590443310638
 40
4.802590443310638
 40
4.802590443310638
 10
1013.23730229942
 20
306.9113129269219
 30
0.0
 41
1.0
 10
1013.080569887003
 20
306.9109320506111
 30
0.0
 41
1.0
 10
1012.770005868484
 20
306.9133117014366
 30
0.0
 41
1.0
 10
1012.171814373577
 20
306.9302262590185
 30
0.0
 41
1.0
 10
1011.486763979985
 20
306.9711172631169
 30
0.0
 41
1.0
 10
1010.857343255932
 20
307.0406825775605
 30
0.0
 41
1.0
 10
1010.434098251662
 20
307.1130018788623
 30
0.0
 41
1.0
 10
1010.253875938918
 20
307.1540411405349
 30
0.0
 41
1.0
 10
1010.172677643095
 20
307.175981846469
 30
0.0
 41
1.0
 10
1010.041424429624
 20
307.2116615593912
 30
0.0
 41
1.0
 10
1009.941019028394
 20
307.2493116076677
 30
0.0
 41
1.0
 10
1009.806055062884
 20
307.3267198366687
 30
0.0
 41
1.0
 10
1009.771956561175
 20
307.3662122035624
 30
0.0
 41
1.0
 10
1009.771956561175
 20
307.4055929809188
 30
0.0
 41
1.0
  0
SPLINE
  5
CA
330
1F
100
AcDbEntity
  8
Default
100
AcDbSpline
210
0.0
220
0.0
230
1.0
 70
     8
 71
     3
 72
    17
 73
    13
 74
     0
 42
0.000000001
 43
0.0000000001
 40
0.0
 40
0.0
 40
0.0
 40
0.0
 40
0.0508760661047483
 40
0.1190997734045611
 40
0.2128441860443411
 40
0.3346659653096182
 40
0.4851681184537397
 40
0.6631894911161414
 40
1.098226809069063
 40
1.626285892269535
 40
2.228167277134128
 40
3.56098891247865
 40
3.56098891247865
 40
3.56098891247865
 40
3.56098891247865
 10
1009.771956561175
 20
307.4055929809188
 30
0.0
 10
1009.771670374689
 20
307.4228451431811
 30
0.0
 10
1009.78843360578
 20
307.4604877286625
 30
0.0
 10
1009.843374434778
 20
307.5067803634321
 30
0.0
 10
1009.927241101523
 20
307.5509224325247
 30
0.0
 10
1010.041747209514
 20
307.5936916319687
 30
0.0
 10
1010.186112879292
 20
307.6349592391014
 30
0.0
 10
1010.434577673144
 20
307.6907160081325
 30
0.0
 10
1010.810398791571
 20
307.7505120144644
 30
0.0
 10
1011.329118288743
 20
307.8068309264704
 30
0.0
 10
1012.148096497037
 20
307.8649498809458
 30
0.0
 10
1012.793046882272
 20
307.8814417730634
 30
0.0
 10
1013.23730229942
 20
307.8825629289351
 30
0.0
  0
SPLINE
  5
CB
330
1F
100
AcDbEntity
  8
Default
100
AcDbSpline
210
0.0
220
0.0
230
1.0
 70
    12
 71
     2
 72
     8
 73
     5
 74
     0
 42
0.000000001
 43
0.0000000001
 40
0.0
 40
0.0
 40
0.0
 40
5.570822097790584
 40
5.570822097790584
 40
12.62376623658409
 40
12.62376623658409
 40
12.62376623658409
 10
1013.23730229942
 20
307.8825629289349
 30
0.0
 41
1.0
 10
1016.022707902194
 20
307.8882406860066
 30
0.0
 41
0.9999998165646696
 10
1018.808118339217
 20
307.8905442077504
 30
0.0
 41
1.0
 10
1022.334589491883
 20
307.8933751236172
 30
0.0
 41
0.9999999066158768
 10
1025.861061774139
 20
307.893157990432
 30
0.0
 41
1.0
  0
SPLINE
  5
CC
330
1F
100
AcDbEntity
  8
Default
100
AcDbSpline
210
0.0
220
0.0
230
1.0
 70
    12
 71
     2
 72
     8
 73
     5
 74
     0
 42
0.000000001
 43
0.0000000001
 40
0.0
 40
0.0
 40
0.0
 40
7.053163492888948
 40
7.053163492888948
 40
12.62376623546964
 40
12.62376623546964
 40
12.62376623546964
 10
1025.861061774139
 20
307.893157990432
 30
0.0
 41
1.0
 10
1029.387643733428
 20
307.8933750859579
 30
0.0
 41
0.9999999066264853
 10
1032.914224563191
 20
307.890544210777
 30
0.0
 41
1.0
 10
1035.699525322568
 20
307.8882408789111
 30
0.0
 41
0.9999998166438841
 10
1038.484821249492
 20
307.8825641731935
 30
0.0
 41
1.0
  0
SPLINE
  5
CD
330
1F
100
AcDbEntity
  8
Default
100
AcDbSpline
210
0.0
220
0.0
230
1.0
 70
     8
 71
     3
 72
    18
 73
    14
 74
     0
 42
0.000000001
 43
0.0000000001
 40
0.0
 40
0.0
 40
0.0
 40
0.0
 40
0.6795694320780391
 40
1.332821604992624
 40
1.934702974025442
 40
2.462762036462273
 40
2.897799325572508
 40
3.075820679427551
 40
3.226322811029958
 40
3.348144566006037
 40
3.44188895253933
 40
3.510112634031528
 40
3.560988680937708
 40
3.560988680937708
 40
3.560988680937708
 40
3.560988680937708
 10
1038.484821249492
 20
307.8825641731937
 30
0.0
 10
1038.711343367507
 20
307.8820861785346
 30
0.0
 10
1039.155607604942
 20
307.8755439409548
 30
0.0
 10
1039.800020340775
 20
307.8489831613063
 30
0.0
 10
1040.39300131465
 20
307.8067890578598
 30
0.0
 10
1040.911727408253
 20
307.7505439483062
 30
0.0
 10
1041.287544294881
 20
307.6907008365976
 30
0.0
 10
1041.536011446668
 20
307.6349704437165
 30
0.0
 10
1041.68037594666
 20
307.5936898571322
 30
0.0
 10
1041.794882649388
 20
307.5509273628925
 30
0.0
 10
1041.878749000082
 20
307.5067818258619
 30
0.0
 10
1041.933690013904
 20
307.4604912646941
 30
0.0
 10
1041.950453140713
 20
307.4228475259029
 30
0.0
 10
1041.950166987737
 20
307.4055957510399
 30
0.0
  0
SPLINE
  5
CE
330
1F
100
AcDbEntity
  8
Default
100
AcDbSpline
210
0.0
220
0.0
230
1.0
 70
    12
 71
     3
 72
    17
 73
    13
 74
     0
 42
0.000000001
 43
0.0000000001
 40
0.0
 40
0.0
 40
0.0
 40
0.0
 40
0.8598630552531528
 40
0.8598630552531528
 40
1.71973920235034
 40
1.71973920235034
 40
1.71973920235034
 40
1.972040369057696
 40
2.274025150175374
 40
3.007425060761054
 40
3.870892381191231
 40
4.802587825922291
 40
4.802587825922291
 40
4.802587825922291
 40
4.802587825922291
 10
1041.950166987737
 20
307.4055957510398
 30
0.0
 41
1.0
 10
1041.950166971478
 20
307.3662150734685
 30
0.0
 41
1.0
 10
1041.916068658707
 20
307.3267228175936
 30
0.0
 41
1.0
 10
1041.781105452195
 20
307.2493147520486
 30
0.0
 41
1.0
 10
1041.680700599905
 20
307.2116647544906
 30
0.0
 41
1.0
 10
1041.549448091217
 20
307.175985060507
 30
0.0
 41
1.0
 10
1041.468249455061
 20
307.154045575652
 30
0.0
 41
1.0
 10
1041.288028389704
 20
307.1130024737908
 30
0.0
 41
1.0
 10
1040.86478130528
 20
307.0406892444686
 30
0.0
 41
1.0
 10
1040.235363906504
 20
306.971111705315
 30
0.0
 41
1.0
 10
1039.393820606043
 20
306.9209026076566
 30
0.0
 41
1.0
 10
1038.795379256984
 20
306.9105978185461
 30
0.0
 41
1.0
 10
1038.484821249492
 20
306.9113143183591
 30
0.0
 41
1.0
  0
SPLINE
  5
CF
330
1F
100
AcDbEntity
  8
Default
100
AcDbSpline
210
0.0
220
0.0
230
1.0
 70
    12
 71
     2
 72
     8
 73
     5
 74
     0
 42
0.000000001
 43
0.0000000001
 40
0.0
 40
0.0
 40
0.0
 40
5.623764048758538
 40
5.623764048758538
 40
12.62376933293356
 40
12.62376933293356
 40
12.62376933293356
 10
1038.484821249492
 20
306.911314318359
 30
0.0
 41
1.0
 10
1035.672946919248
 20
306.9180795310456
 30
0.0
 41
0.9999997630331204
 10
1032.86106593956
 20
306.9209731897785
 30
0.0
 41
1.0
 10
1029.361064741452
 20
306.9244983046304
 30
0.0
 41
0.9999998580468176
 10
1025.861061774125
 20
306.9242936163501
 30
0.0
 41
1.0
  0
SPLINE
  5
D0
330
1F
100
AcDbEntity
  8
Default
100
AcDbSpline
210
0.0
220
0.0
230
1.0
 70
    12
 71
     2
 72
     8
 73
     5
 74
     0
 42
0.000000001
 43
0.0000000001
 40
0.0
 40
0.0
 40
0.0
 40
34.55751518918212
 40
34.55751518918212
 40
69.11503037836408
 40
69.11503037836408
 40
69.11503037836408
 10
1025.861061774456
 20
184.4999996872503
 30
0.0
 41
1.0
 10
1047.861059227782
 20
184.499997177869
 30
0.0
 41
0.7071067811865563
 10
1047.861056718401
 20
162.4999997245429
 30
0.0
 41
1.0
 10
1047.861059227782
 20
140.500002271217
 30
0.0
 41
0.7071067811865543
 10
1025.861061774456
 20
140.4999997618356
 30
0.0
 41
1.0
  0
SPLINE
  5
D1
330
1F
100
AcDbEntity
  8
Default
100
AcDbSpline
210
0.0
220
0.0
230
1.0
 70
    12
 71
     2
 72
     8
 73
     5
 74
     0
 42
0.000000001
 43
0.0000000001
 40
0.0
 40
0.0
 40
0.0
 40
35.34291326166324
 40
35.34291326166324
 40
70.68582652332651
 40
70.68582652332651
 40
70.68582652332651
 10
1025.861061774456
 20
139.9999997626831
 30
0.0
 41
1.0
 10
1048.361059169903
 20
140.0000023290962
 30
0.0
 41
0.7071067811865623
 10
1048.361056603491
 20
162.4999997245429
 30
0.0
 41
1.0
 10
1048.361059169903
 20
184.9999971199897
 30
0.0
 41
0.7071067811865632
 10
1025.861061774456
 20
184.9999996864027
 30
0.0
 41
1.0
  0
SPLINE
  5
D2
330
1F
100
AcDbEntity
  8
Default
100
AcDbSpline
210
0.0
220
0.0
230
1.0
 70
    12
 71
     2
 72
     8
 73
     5
 74
     0
 42
0.000000001
 43
0.0000000001
 40
0.0
 40
0.0
 40
0.0
 40
35.34291326166336
 40
35.34291326166336
 40
70.68582652332686
 40
70.68582652332686
 40
70.68582652332686
 10
1025.861061774456
 20
184.9999996864028
 30
0.0
 41
1.0
 10
1003.361064379009
 20
184.9999971199897
 30
0.0
 41
0.707106781186564
 10
1003.361066945421
 20
162.4999997245429
 30
0.0
 41
1.0
 10
1003.361064379009
 20
140.0000023290961
 30
0.0
 41
0.7071067811865623
 10
1025.861061774456
 20
139.999999762683
 30
0.0
 41
1.0
  0
SPLINE
  5
D3
330
1F
100
AcDbEntity
  8
Default
100
AcDbSpline
210
0.0
220
0.0
230
1.0
 70
    12
 71
     2
 72
     8
 73
     5
 74
     0
 42
0.000000001
 43
0.0000000001
 40
0.0
 40
0.0
 40
0.0
 40
34.55751518918166
 40
34.55751518918166
 40
69.11503037836363
 40
69.11503037836363
 40
69.11503037836363
 10
1025.861061774456
 20
140.4999997618356
 30
0.0
 41
1.0
 10
1003.861064321131
 20
140.5000022712176
 30
0.0
 41
0.7071067811865737
 10
1003.861066830511
 20
162.4999997245429
 30
0.0
 41
1.0
 10
1003.861064321131
 20
184.4999971778684
 30
0.0
 41
0.7071067811865746
 10
1025.861061774456
 20
184.4999996872505
 30
0.0
 41
1.0
  0
ENDSEC
  0
SECTION
  2
OBJECTS
  0
DICTIONARY
  5
C
330
0
100
AcDbDictionary
281
     1
  3
ACAD_CIP_PREVIOUS_PRODUCT_INFO
350
126
  3
ACAD_COLOR
350
120
  3
ACAD_DETAILVIEWSTYLE
350
11D
  3
ACAD_GROUP
350
D
  3
ACAD_LAYOUT
350
1A
  3
ACAD_MATERIAL
350
43
  3
ACAD_MLEADERSTYLE
350
6B
  3
ACAD_MLINESTYLE
350
17
  3
ACAD_PLOTSETTINGS
350
19
  3
ACAD_PLOTSTYLENAME
350
E
  3
ACAD_SCALELIST
350
47
  3
ACAD_SECTIONVIEWSTYLE
350
11E
  3
ACAD_TABLESTYLE
350
69
  3
ACAD_VISUALSTYLE
350
2A
  3
ACDB_RECOMPOSE_DATA
350
152
  3
AcDbVariableDictionary
350
DA
  0
DICTIONARY
  5
D8
330
8
100
AcDbDictionary
280
     1
281
     1
  0
SUN
  5
6D
330
29
100
AcDbSun
 90
        1
290
     0
 63
     7
421
 16777215
 40
1.0
291
     1
 91
  2455826
 92
 54000000
292
     0
 70
     0
 71
   256
280
     1
  0
DICTIONARY
  5
130
330
2
100
AcDbDictionary
280
     1
281
     1
  3
ACAD_LAYERSTATES
360
131
  0
DICTIONARY
  5
127
330
10
100
AcDbDictionary
280
     1
281
     1
  3
ADSK_XREC_LAYER_RECONCILED
360
128
  0
DICTIONARY
  5
129
330
6E
100
AcDbDictionary
280
     1
281
     1
  3
ADSK_XREC_LAYER_RECONCILED
360
12A
  0
DICTIONARY
  5
12B
330
81
100
AcDbDictionary
280
     1
281
     1
  3
ADSK_XREC_LAYER_RECONCILED
360
12C
  0
XRECORD
  5
126
102
{ACAD_REACTORS
330
C
102
}
330
C
100
AcDbXrecord
280
     1
300
ACDMAC
300
2016
300
ACDMAC_F_S
  0
DICTIONARY
  5
120
102
{ACAD_REACTORS
330
C
102
}
330
C
100
AcDbDictionary
281
     1
  0
DICTIONARY
  5
11D
102
{ACAD_REACTORS
330
C
102
}
330
C
100
AcDbDictionary
281
     1
  3
Imperial24
350
122
  0
DICTIONARY
  5
D
102
{ACAD_REACTORS
330
C
102
}
330
C
100
AcDbDictionary
281
     1
  0
DICTIONARY
  5
1A
102
{ACAD_REACTORS
330
C
102
}
330
C
100
AcDbDictionary
281
     1
  3
Layout1
350
1E
  3
Layout2
350
26
  3
Model
350
22
  0
DICTIONARY
  5
43
102
{ACAD_REACTORS
330
C
102
}
330
C
100
AcDbDictionary
281
     1
  3
ByBlock
350
45
  3
ByLayer
350
44
  3
Global
350
46
  0
DICTIONARY
  5
6B
102
{ACAD_REACTORS
330
C
102
}
330
C
100
AcDbDictionary
281
     1
  3
Standard
350
6C
  0
DICTIONARY
  5
17
102
{ACAD_REACTORS
330
C
102
}
330
C
100
AcDbDictionary
281
     1
  3
Standard
350
18
  0
DICTIONARY
  5
19
102
{ACAD_REACTORS
330
C
102
}
330
C
100
AcDbDictionary
281
     1
  0
ACDBDICTIONARYWDFLT
  5
E
102
{ACAD_REACTORS
330
C
102
}
330
C
100
AcDbDictionary
281
     1
  3
Normal
350
F
100
AcDbDictionaryWithDefault
340
F
  0
DICTIONARY
  5
47
102
{ACAD_REACTORS
330
C
102
}
330
C
100
AcDbDictionary
281
     1
  3
A0
350
48
  3
A1
350
49
  3
A2
350
4A
  3
A3
350
4B
  3
A4
350
4C
  3
A5
350
4D
  3
A6
350
4E
  3
A7
350
4F
  3
A8
350
50
  3
A9
350
51
  3
B0
350
52
  3
B1
350
53
  3
B2
350
54
  3
B3
350
55
  3
B4
350
56
  3
B5
350
57
  3
B6
350
58
  3
B7
350
59
  3
B8
350
5A
  3
B9
350
5B
  3
C0
350
5C
  3
C1
350
5D
  3
C2
350
5E
  3
C3
350
5F
  3
C4
350
60
  3
C5
350
61
  3
C6
350
62
  3
C7
350
63
  3
C8
350
64
  3
C9
350
65
  3
D0
350
66
  3
D1
350
67
  3
D2
350
68
  0
DICTIONARY
  5
11E
102
{ACAD_REACTORS
330
C
102
}
330
C
100
AcDbDictionary
281
     1
  3
Imperial24
350
121
  0
DICTIONARY
  5
69
102
{ACAD_REACTORS
330
C
102
}
330
C
100
AcDbDictionary
281
     1
  3
Standard
350
6A
  0
DICTIONARY
  5
2A
102
{ACAD_REACTORS
330
C
102
}
330
C
100
AcDbDictionary
281
     1
  3
2dWireframe
350
2F
  3
Basic
350
32
  3
Brighten
350
36
  3
ColorChange
350
3A
  3
Conceptual
350
34
  3
Dim
350
35
  3
EdgeColorOff
350
3D
  3
Facepattern
350
39
  3
Flat
350
2B
  3
FlatWithEdges
350
2C
  3
Gouraud
350
2D
  3
GouraudWithEdges
350
2E
  3
Hidden
350
31
  3
JitterOff
350
3B
  3
Linepattern
350
38
  3
OverhangOff
350
3C
  3
Realistic
350
33
  3
Shaded
350
42
  3
Shaded with edges
350
41
  3
Shades of Gray
350
3E
  3
Sketchy
350
3F
  3
Thicken
350
37
  3
Wireframe
350
30
  3
X-Ray
350
40
  0
XRECORD
  5
152
102
{ACAD_REACTORS
330
C
102
}
330
C
100
AcDbXrecord
280
     1
 90
        1
330
6A
330
121
330
122
  0
DICTIONARY
  5
DA
102
{ACAD_REACTORS
330
C
102
}
330
C
100
AcDbDictionary
281
     1
  3
CANNOSCALE
350
DB
  3
CMLEADERSTYLE
350
11C
  3
CTABLESTYLE
350
11B
  3
CVIEWDETAILSTYLE
350
148
  3
CVIEWSECTIONSTYLE
350
149
  3
LAYEREVAL
350
14B
  3
LAYERNOTIFY
350
14C
  3
LIGHTINGUNITS
350
14A
  3
MSLTSCALE
350
DC
  0
DICTIONARY
  5
131
102
{ACAD_REACTORS
330
130
102
}
330
130
100
AcDbDictionary
281
     1
  0
XRECORD
  5
128
102
{ACAD_REACTORS
330
127
102
}
330
127
100
AcDbXrecord
280
     1
290
     1
  0
XRECORD
  5
12A
102
{ACAD_REACTORS
330
129
102
}
330
129
100
AcDbXrecord
280
     1
290
     1
  0
XRECORD
  5
12C
102
{ACAD_REACTORS
330
12B
102
}
330
12B
100
AcDbXrecord
280
     1
290
     1
  0
ACDBDETAILVIEWSTYLE
  5
122
102
{ACAD_XDICTIONARY
360
150
102
}
102
{ACAD_REACTORS
330
11D
102
}
330
11D
100
AcDbModelDocViewStyle
 70
     0
  3
Imperial24
290
     0
100
AcDbDetailViewStyle
 70
     0
 71
     0
 90
        3
 71
     1
340
11
 62
   256
 40
0.24
340
0
 62
   256
 40
0.24
300

 40
0.36
280
     3
 71
     2
340
16
 90
       25
 62
   256
 71
     3
340
11
 62
   256
 40
0.24
 90
        1
 40
0.75
 90
        1
300
%<\AcVar ViewType \f "%tc1">% %<\AcVar ViewDetailId>%\PSCALE %<\AcVar ViewScale \f "%sn">%
 71
     4
340
16
 90
       25
 62
   256
340
16
 90
       25
 62
   256
280
     0
  0
LAYOUT
  5
1E
102
{ACAD_REACTORS
330
1A
102
}
330
1A
100
AcDbPlotSettings
  1

  2
none_device
  4

  6

 40
0.0
 41
0.0
 42
0.0
 43
0.0
 44
0.0
 45
0.0
 46
0.0
 47
0.0
 48
0.0
 49
0.0
140
0.0
141
0.0
142
1.0
143
1.0
 70
   688
 72
     0
 73
     0
 74
     5
  7

 75
    16
147
1.0
 76
     0
 77
     2
 78
   300
148
0.0
149
0.0
100
AcDbLayout
  1
Layout1
 70
     1
 71
     1
 10
0.0
 20
0.0
 11
12.0
 21
9.0
 12
0.0
 22
0.0
 32
0.0
 14
1.000000000000000E+20
 24
1.000000000000000E+20
 34
1.000000000000000E+20
 15
-1.000000000000000E+20
 25
-1.000000000000000E+20
 35
-1.000000000000000E+20
146
0.0
 13
0.0
 23
0.0
 33
0.0
 16
1.0
 26
0.0
 36
0.0
 17
0.0
 27
1.0
 37
0.0
 76
     0
330
1B
  0
LAYOUT
  5
26
102
{ACAD_REACTORS
330
1A
102
}
330
1A
100
AcDbPlotSettings
  1

  2
none_device
  4

  6

 40
0.0
 41
0.0
 42
0.0
 43
0.0
 44
0.0
 45
0.0
 46
0.0
 47
0.0
 48
0.0
 49
0.0
140
0.0
141
0.0
142
1.0
143
1.0
 70
   688
 72
     0
 73
     0
 74
     5
  7

 75
    16
147
1.0
 76
     0
 77
     2
 78
   300
148
0.0
149
0.0
100
AcDbLayout
  1
Layout2
 70
     1
 71
     2
 10
0.0
 20
0.0
 11
0.0
 21
0.0
 12
0.0
 22
0.0
 32
0.0
 14
0.0
 24
0.0
 34
0.0
 15
0.0
 25
0.0
 35
0.0
146
0.0
 13
0.0
 23
0.0
 33
0.0
 16
1.0
 26
0.0
 36
0.0
 17
0.0
 27
1.0
 37
0.0
 76
     0
330
23
  0
LAYOUT
  5
22
102
{ACAD_REACTORS
330
1A
102
}
330
1A
100
AcDbPlotSettings
  1

  2
none_device
  4
Letter_(8.50_x_11.00_Inches)
  6

 40
6.349999999999999
 41
6.349999999999999
 42
6.350005079999999
 43
6.350005079999999
 44
215.9
 45
279.4
 46
0.0
 47
0.0
 48
0.0
 49
0.0
140
0.0
141
0.0
142
1.0
143
1.0
 70
  1712
 72
     0
 73
     0
 74
     0
  7

 75
     0
147
1.0
 76
     0
 77
     2
 78
   300
148
0.0
149
0.0
100
AcDbLayout
  1
Model
 70
     1
 71
     0
 10
0.0
 20
0.0
 11
12.0
 21
9.0
 12
0.0
 22
0.0
 32
0.0
 14
0.0000000000000853
 24
-0.0000151244555206
 34
0.0
 15
1300.861068692483
 25
665.8612184184878
 35
0.0
146
0.0
 13
0.0
 23
0.0
 33
0.0
 16
1.0
 26
0.0
 36
0.0
 17
0.0
 27
1.0
 37
0.0
 76
     0
330
1F
331
29
  0
MATERIAL
  5
45
102
{ACAD_REACTORS
330
43
102
}
330
43
100
AcDbMaterial
  1
ByBlock
 73
     1
 78
     1
172
     1
176
     1
270
     1
274
     1
  0
MATERIAL
  5
44
102
{ACAD_REACTORS
330
43
102
}
330
43
100
AcDbMaterial
  1
ByLayer
 73
     1
 78
     1
172
     1
176
     1
270
     1
274
     1
  0
MATERIAL
  5
46
102
{ACAD_REACTORS
330
43
102
}
330
43
100
AcDbMaterial
  1
Global
 73
     1
 78
     1
172
     1
176
     1
270
     1
274
     1
  0
MLEADERSTYLE
  5
6C
102
{ACAD_REACTORS
330
6B
102
}
330
6B
100
AcDbMLeaderStyle
179
     2
170
     2
171
     1
172
     0
 90
        2
 40
0.0
 41
0.0
173
     1
 91
-1056964608
340
14
 92
       -2
290
     1
 42
0.09
291
     1
 43
0.36
  3
Standard
 44
0.18
300

342
11
174
     1
178
     6
175
     1
176
     0
 93
-1056964608
 45
0.18
292
     0
297
     0
 46
0.18
 94
-1056964608
 47
1.0
 49
1.0
140
1.0
293
     1
141
0.0
294
     1
177
     0
142
1.0
295
     0
296
     0
143
0.125
271
     0
272
     9
273
     9
298
     0
  0
MLINESTYLE
  5
18
102
{ACAD_REACTORS
330
17
102
}
330
17
100
AcDbMlineStyle
  2
STANDARD
 70
     0
  3

 62
   256
 51
90.0
 52
90.0
 71
     2
 49
0.5
 62
   256
  6
BYLAYER
 49
-0.5
 62
   256
  6
BYLAYER
  0
ACDBPLACEHOLDER
  5
F
102
{ACAD_REACTORS
330
E
102
}
330
E
  0
SCALE
  5
48
102
{ACAD_REACTORS
330
47
102
}
330
47
100
AcDbScale
 70
     0
300
1:1
140
1.0
141
1.0
290
     1
  0
SCALE
  5
49
102
{ACAD_REACTORS
330
47
102
}
330
47
100
AcDbScale
 70
     0
300
1:2
140
1.0
141
2.0
290
     0
  0
SCALE
  5
4A
102
{ACAD_REACTORS
330
47
102
}
330
47
100
AcDbScale
 70
     0
300
1:4
140
1.0
141
4.0
290
     0
  0
SCALE
  5
4B
102
{ACAD_REACTORS
330
47
102
}
330
47
100
AcDbScale
 70
     0
300
1:5
140
1.0
141
5.0
290
     0
  0
SCALE
  5
4C
102
{ACAD_REACTORS
330
47
102
}
330
47
100
AcDbScale
 70
     0
300
1:8
140
1.0
141
8.0
290
     0
  0
SCALE
  5
4D
102
{ACAD_REACTORS
330
47
102
}
330
47
100
AcDbScale
 70
     0
300
1:10
140
1.0
141
10.0
290
     0
  0
SCALE
  5
4E
102
{ACAD_REACTORS
330
47
102
}
330
47
100
AcDbScale
 70
     0
300
1:16
140
1.0
141
16.0
290
     0
  0
SCALE
  5
4F
102
{ACAD_REACTORS
330
47
102
}
330
47
100
AcDbScale
 70
     0
300
1:20
140
1.0
141
20.0
290
     0
  0
SCALE
  5
50
102
{ACAD_REACTORS
330
47
102
}
330
47
100
AcDbScale
 70
     0
300
1:30
140
1.0
141
30.0
290
     0
  0
SCALE
  5
51
102
{ACAD_REACTORS
330
47
102
}
330
47
100
AcDbScale
 70
     0
300
1:40
140
1.0
141
40.0
290
     0
  0
SCALE
  5
52
102
{ACAD_REACTORS
330
47
102
}
330
47
100
AcDbScale
 70
     0
300
1:50
140
1.0
141
50.0
290
     0
  0
SCALE
  5
53
102
{ACAD_REACTORS
330
47
102
}
330
47
100
AcDbScale
 70
     0
300
1:100
140
1.0
141
100.0
290
     0
  0
SCALE
  5
54
102
{ACAD_REACTORS
330
47
102
}
330
47
100
AcDbScale
 70
     0
300
2:1
140
2.0
141
1.0
290
     0
  0
SCALE
  5
55
102
{ACAD_REACTORS
330
47
102
}
330
47
100
AcDbScale
 70
     0
300
4:1
140
4.0
141
1.0
290
     0
  0
SCALE
  5
56
102
{ACAD_REACTORS
330
47
102
}
330
47
100
AcDbScale
 70
     0
300
8:1
140
8.0
141
1.0
290
     0
  0
SCALE
  5
57
102
{ACAD_REACTORS
330
47
102
}
330
47
100
AcDbScale
 70
     0
300
10:1
140
10.0
141
1.0
290
     0
  0
SCALE
  5
58
102
{ACAD_REACTORS
330
47
102
}
330
47
100
AcDbScale
 70
     0
300
100:1
140
100.0
141
1.0
290
     0
  0
SCALE
  5
59
102
{ACAD_REACTORS
330
47
102
}
330
47
100
AcDbScale
 70
     0
300
1/128" = 1'-0"
140
0.0078125
141
12.0
290
     0
  0
SCALE
  5
5A
102
{ACAD_REACTORS
330
47
102
}
330
47
100
AcDbScale
 70
     0
300
1/64" = 1'-0"
140
0.015625
141
12.0
290
     0
  0
SCALE
  5
5B
102
{ACAD_REACTORS
330
47
102
}
330
47
100
AcDbScale
 70
     0
300
1/32" = 1'-0"
140
0.03125
141
12.0
290
     0
  0
SCALE
  5
5C
102
{ACAD_REACTORS
330
47
102
}
330
47
100
AcDbScale
 70
     0
300
1/16" = 1'-0"
140
0.0625
141
12.0
290
     0
  0
SCALE
  5
5D
102
{ACAD_REACTORS
330
47
102
}
330
47
100
AcDbScale
 70
     0
300
3/32" = 1'-0"
140
0.09375
141
12.0
290
     0
  0
SCALE
  5
5E
102
{ACAD_REACTORS
330
47
102
}
330
47
100
AcDbScale
 70
     0
300
1/8" = 1'-0"
140
0.125
141
12.0
290
     0
  0
SCALE
  5
5F
102
{ACAD_REACTORS
330
47
102
}
330
47
100
AcDbScale
 70
     0
300
3/16" = 1'-0"
140
0.1875
141
12.0
290
     0
  0
SCALE
  5
60
102
{ACAD_REACTORS
330
47
102
}
330
47
100
AcDbScale
 70
     0
300
1/4" = 1'-0"
140
0.25
141
12.0
290
     0
  0
SCALE
  5
61
102
{ACAD_REACTORS
330
47
102
}
330
47
100
AcDbScale
 70
     0
300
3/8" = 1'-0"
140
0.375
141
12.0
290
     0
  0
SCALE
  5
62
102
{ACAD_REACTORS
330
47
102
}
330
47
100
AcDbScale
 70
     0
300
1/2" = 1'-0"
140
0.5
141
12.0
290
     0
  0
SCALE
  5
63
102
{ACAD_REACTORS
330
47
102
}
330
47
100
AcDbScale
 70
     0
300
3/4" = 1'-0"
140
0.75
141
12.0
290
     0
  0
SCALE
  5
64
102
{ACAD_REACTORS
330
47
102
}
330
47
100
AcDbScale
 70
     0
300
1" = 1'-0"
140
1.0
141
12.0
290
     0
  0
SCALE
  5
65
102
{ACAD_REACTORS
330
47
102
}
330
47
100
AcDbScale
 70
     0
300
1-1/2" = 1'-0"
140
1.5
141
12.0
290
     0
  0
SCALE
  5
66
102
{ACAD_REACTORS
330
47
102
}
330
47
100
AcDbScale
 70
     0
300
3" = 1'-0"
140
3.0
141
12.0
290
     0
  0
SCALE
  5
67
102
{ACAD_REACTORS
330
47
102
}
330
47
100
AcDbScale
 70
     0
300
6" = 1'-0"
140
6.0
141
12.0
290
     0
  0
SCALE
  5
68
102
{ACAD_REACTORS
330
47
102
}
330
47
100
AcDbScale
 70
     0
300
1'-0" = 1'-0"
140
12.0
141
12.0
290
     0
  0
ACDBSECTIONVIEWSTYLE
  5
121
102
{ACAD_XDICTIONARY
360
14E
102
}
102
{ACAD_REACTORS
330
11E
102
}
330
11E
100
AcDbModelDocViewStyle
 70
     0
  3
Imperial24
290
     0
100
AcDbSectionViewStyle
 70
     0
 71
     0
 90
       78
 71
     1
340
11
 62
   256
 40
0.24
340
0
340
0
 62
   256
 40
0.24
300
I, O, Q, S, X, Z
 40
0.48
 90
        3
 40
0.18
 90
        1
 71
     2
340
16
 90
       25
 62
   256
340
16
 90
       50
 62
   256
 40
0.24
 40
0.0
 40
0.24
 71
     3
340
11
 62
   256
 40
0.24
 90
        1
 40
0.75
 90
        1
300
%<\AcVar ViewType \f "%tc1">% %<\AcVar ViewSectionStartId>%-%<\AcVar ViewSectionEndId>%\PSCALE %<\AcVar ViewScale \f "%sn">%
 71
     4
 62
   256
 62
   257
300
ANSI31
 40
1.0
 90
        0
290
     0
290
     0
 90
        6
 40
0.0
 40
1.570796326794896
 40
0.2617993877991494
 40
1.308996938995747
 40
-0.2617993877991494
 40
1.832595714594046
  0
TABLESTYLE
  5
6A
102
{ACAD_XDICTIONARY
360
114
102
}
102
{ACAD_REACTORS
330
69
102
}
330
69
100
AcDbTableStyle
280
     0
  3
Standard
 70
     0
 71
     0
 40
0.06
 41
0.06
280
     0
281
     0
  7
Standard
140
0.18
170
     2
 62
     0
 63
     7
283
     0
 90
        4
 91
        0
  1

274
    -2
284
     1
 64
     0
275
    -2
285
     1
 65
     0
276
    -2
286
     1
 66
     0
277
    -2
287
     1
 67
     0
278
    -2
288
     1
 68
     0
279
    -2
289
     1
 69
     0
  7
Standard
140
0.25
170
     5
 62
     0
 63
     7
283
     0
 90
        4
 91
        0
  1

274
    -2
284
     1
 64
     0
275
    -2
285
     1
 65
     0
276
    -2
286
     1
 66
     0
277
    -2
287
     1
 67
     0
278
    -2
288
     1
 68
     0
279
    -2
289
     1
 69
     0
  7
Standard
140
0.18
170
     5
 62
     0
 63
     7
283
     0
 90
        4
 91
        0
  1

274
    -2
284
     1
 64
     0
275
    -2
285
     1
 65
     0
276
    -2
286
     1
 66
     0
277
    -2
287
     1
 67
     0
278
    -2
288
     1
 68
     0
279
    -2
289
     1
 69
     0
  0
VISUALSTYLE
  5
2F
102
{ACAD_REACTORS
330
2A
102
}
330
2A
100
AcDbVisualStyle
  2
2dWireframe
 70
     4
177
     3
291
     0
 70
    58
 90
        0
176
     1
 90
        2
176
     1
 90
        0
176
     1
 90
        0
176
     1
 40
0.6
176
     1
 40
30.0
176
     1
 62
     7
420
 16777215
176
     1
 90
        1
176
     1
 90
        4
176
     1
 62
     7
176
     1
 62
   257
176
     1
 90
        1
176
     1
 90
        1
176
     1
 40
1.0
176
     1
 90
        0
176
     1
 62
   257
176
     1
 40
1.0
176
     1
 90
        1
176
     1
 90
        6
176
     1
 90
        2
176
     1
 62
     7
176
     1
 90
        5
176
     1
 90
        0
176
     1
 90
        0
176
     1
290
     0
176
     1
 90
        1
176
     1
 40
0.0
176
     1
 90
        0
176
     1
290
     1
176
     1
290
     1
176
     1
290
     0
176
     1
290
     0
176
     1
290
     0
176
     1
290
     0
176
     1
290
     0
176
     1
290
     0
176
     1
290
     0
176
     1
 90
       50
176
     1
 40
0.0
176
     1
 40
1.0
176
     1
 90
        0
176
     1
 62
    18
420
        0
176
     1
 90
       50
176
     1
 90
        3
176
     1
 62
     5
420
      255
176
     1
290
     0
176
     1
 90
       50
176
     1
 90
       50
176
     1
 90
       50
176
     1
290
     0
176
     1
 90
       50
176
     1
 62
   256
176
     0
 40
1.0
176
     0
 90
        2
176
     1
  1
strokes_ogs.tif
176
     1
290
     0
176
     1
 40
1.0
176
     1
 40
1.0
176
     1
  0
VISUALSTYLE
  5
32
102
{ACAD_REACTORS
330
2A
102
}
330
2A
100
AcDbVisualStyle
  2
Basic
 70
     7
177
     3
291
     1
 70
    58
 90
        1
176
     1
 90
        0
176
     1
 90
        1
176
     1
 90
        0
176
     1
 40
0.6
176
     1
 40
30.0
176
     1
 62
     7
420
 16777215
176
     1
 90
        0
176
     1
 90
        4
176
     1
 62
     7
176
     1
 62
   257
176
     1
 90
        1
176
     1
 90
        1
176
     1
 40
1.0
176
     1
 90
        8
176
     1
 62
     7
176
     1
 40
1.0
176
     1
 90
        1
176
     1
 90
        6
176
     1
 90
        2
176
     1
 62
     7
176
     1
 90
        5
176
     1
 90
        0
176
     1
 90
        0
176
     1
290
     0
176
     1
 90
        1
176
     1
 40
0.0
176
     1
 90
        0
176
     1
290
     0
176
     1
290
     1
176
     1
290
     1
176
     1
290
     0
176
     1
290
     0
176
     1
290
     0
176
     1
290
     0
176
     1
290
     0
176
     1
290
     0
176
     1
 90
       50
176
     1
 40
0.0
176
     1
 40
1.0
176
     1
 90
        0
176
     1
 62
    18
420
        0
176
     1
 90
       50
176
     1
 90
        3
176
     1
 62
     5
420
      255
176
     1
290
     0
176
     1
 90
       50
176
     1
 90
       50
176
     1
 90
       50
176
     1
290
     0
176
     1
 90
       50
176
     1
 62
   256
176
     0
 40
1.0
176
     0
 90
        2
176
     1
  1
strokes_ogs.tif
176
     1
290
     0
176
     1
 40
1.0
176
     1
 40
1.0
176
     1
  0
VISUALSTYLE
  5
36
102
{ACAD_REACTORS
330
2A
102
}
330
2A
100
AcDbVisualStyle
  2
Brighten
 70
    12
177
     3
291
     1
 70
    58
 90
        2
176
     1
 90
        2
176
     1
 90
        0
176
     1
 90
        0
176
     1
 40
0.6
176
     1
 40
30.0
176
     1
 62
     7
420
 16777215
176
     1
 90
        1
176
     1
 90
        4
176
     1
 62
     7
176
     1
 62
   257
176
     1
 90
        1
176
     1
 90
        1
176
     1
 40
1.0
176
     1
 90
        8
176
     1
 62
     7
176
     1
 40
1.0
176
     1
 90
        1
176
     1
 90
        6
176
     1
 90
        2
176
     1
 62
     7
176
     1
 90
        5
176
     1
 90
        0
176
     1
 90
        0
176
     1
290
     0
176
     1
 90
        1
176
     1
 40
50.0
176
     1
 90
        0
176
     1
290
     0
176
     1
290
     1
176
     1
290
     1
176
     1
290
     0
176
     1
290
     0
176
     1
290
     0
176
     1
290
     0
176
     1
290
     0
176
     1
290
     0
176
     1
 90
       50
176
     1
 40
0.0
176
     1
 40
1.0
176
     1
 90
        0
176
     1
 62
    18
420
        0
176
     1
 90
       50
176
     1
 90
        3
176
     1
 62
     5
420
      255
176
     1
290
     0
176
     1
 90
       50
176
     1
 90
       50
176
     1
 90
       50
176
     1
290
     0
176
     1
 90
       50
176
     1
 62
   256
176
     0
 40
1.0
176
     0
 90
        2
176
     1
  1
strokes_ogs.tif
176
     1
290
     0
176
     1
 40
1.0
176
     1
 40
1.0
176
     1
  0
VISUALSTYLE
  5
3A
102
{ACAD_REACTORS
330
2A
102
}
330
2A
100
AcDbVisualStyle
  2
ColorChange
 70
    16
177
     3
291
     1
 70
    58
 90
        2
176
     1
 90
        2
176
     1
 90
        3
176
     1
 90
        0
176
     1
 40
0.6
176
     1
 40
30.0
176
     1
 62
     8
420
  8421504
176
     1
 90
        1
176
     1
 90
        4
176
     1
 62
     7
176
     1
 62
   257
176
     1
 90
        1
176
     1
 90
        1
176
     1
 40
1.0
176
     1
 90
        8
176
     1
 62
     8
420
  8421504
176
     1
 40
1.0
176
     1
 90
        1
176
     1
 90
        6
176
     1
 90
        2
176
     1
 62
     7
176
     1
 90
        5
176
     1
 90
        0
176
     1
 90
        0
176
     1
290
     0
176
     1
 90
        1
176
     1
 40
0.0
176
     1
 90
        0
176
     1
290
     0
176
     1
290
     1
176
     1
290
     1
176
     1
290
     0
176
     1
290
     0
176
     1
290
     0
176
     1
290
     0
176
     1
290
     0
176
     1
290
     0
176
     1
 90
       50
176
     1
 40
0.0
176
     1
 40
1.0
176
     1
 90
        0
176
     1
 62
    18
420
        0
176
     1
 90
       50
176
     1
 90
        3
176
     1
 62
     5
420
      255
176
     1
290
     0
176
     1
 90
       50
176
     1
 90
       50
176
     1
 90
       50
176
     1
290
     0
176
     1
 90
       50
176
     1
 62
   256
176
     0
 40
1.0
176
     0
 90
        2
176
     1
  1
strokes_ogs.tif
176
     1
290
     0
176
     1
 40
1.0
176
     1
 40
1.0
176
     1
  0
VISUALSTYLE
  5
34
102
{ACAD_REACTORS
330
2A
102
}
330
2A
100
AcDbVisualStyle
  2
Conceptual
 70
     9
177
     3
291
     0
 70
    58
 90
        3
176
     1
 90
        2
176
     1
 90
        0
176
     1
 90
        0
176
     1
 40
0.6
176
     1
 40
30.0
176
     1
 62
     7
420
 16777215
176
     1
 90
        2
176
     1
 90
        2
176
     1
 62
     7
176
     1
 62
   257
176
     1
 90
        1
176
     1
 90
        1
176
     1
 40
179.0
176
     1
 90
        8
176
     1
 62
     7
176
     1
 40
1.0
176
     1
 90
        1
176
     1
 90
        6
176
     1
 90
        2
176
     1
 62
     7
176
     1
 90
        3
176
     1
 90
        0
176
     1
 90
        0
176
     1
290
     0
176
     1
 90
        1
176
     1
 40
0.0
176
     1
 90
        0
176
     1
290
     0
176
     1
290
     1
176
     1
290
     1
176
     1
290
     0
176
     1
290
     0
176
     1
290
     0
176
     1
290
     0
176
     1
290
     0
176
     1
290
     0
176
     1
 90
       50
176
     1
 40
0.0
176
     1
 40
1.0
176
     1
 90
        0
176
     1
 62
    18
420
        0
176
     1
 90
       50
176
     1
 90
        3
176
     1
 62
     5
420
      255
176
     1
290
     0
176
     1
 90
       50
176
     1
 90
       50
176
     1
 90
       50
176
     1
290
     0
176
     1
 90
       50
176
     1
 62
   256
176
     0
 40
1.0
176
     0
 90
        2
176
     1
  1
strokes_ogs.tif
176
     1
290
     0
176
     1
 40
1.0
176
     1
 40
1.0
176
     1
  0
VISUALSTYLE
  5
35
102
{ACAD_REACTORS
330
2A
102
}
330
2A
100
AcDbVisualStyle
  2
Dim
 70
    11
177
     3
291
     1
 70
    58
 90
        2
176
     1
 90
        2
176
     1
 90
        0
176
     1
 90
        0
176
     1
 40
0.6
176
     1
 40
30.0
176
     1
 62
     7
420
 16777215
176
     1
 90
        1
176
     1
 90
        4
176
     1
 62
     7
176
     1
 62
   257
176
     1
 90
        1
176
     1
 90
        1
176
     1
 40
1.0
176
     1
 90
        8
176
     1
 62
     7
176
     1
 40
1.0
176
     1
 90
        1
176
     1
 90
        6
176
     1
 90
        2
176
     1
 62
     7
176
     1
 90
        5
176
     1
 90
        0
176
     1
 90
        0
176
     1
290
     0
176
     1
 90
        1
176
     1
 40
-50.0
176
     1
 90
        0
176
     1
290
     0
176
     1
290
     1
176
     1
290
     1
176
     1
290
     0
176
     1
290
     0
176
     1
290
     0
176
     1
290
     0
176
     1
290
     0
176
     1
290
     0
176
     1
 90
       50
176
     1
 40
0.0
176
     1
 40
1.0
176
     1
 90
        0
176
     1
 62
    18
420
        0
176
     1
 90
       50
176
     1
 90
        3
176
     1
 62
     5
420
      255
176
     1
290
     0
176
     1
 90
       50
176
     1
 90
       50
176
     1
 90
       50
176
     1
290
     0
176
     1
 90
       50
176
     1
 62
   256
176
     0
 40
1.0
176
     0
 90
        2
176
     1
  1
strokes_ogs.tif
176
     1
290
     0
176
     1
 40
1.0
176
     1
 40
1.0
176
     1
  0
VISUALSTYLE
  5
3D
102
{ACAD_REACTORS
330
2A
102
}
330
2A
100
AcDbVisualStyle
  2
EdgeColorOff
 70
    22
177
     3
291
     1
 70
    58
 90
        2
176
     0
 90
        2
176
     0
 90
        0
176
     0
 90
        0
176
     0
 40
0.6
176
     0
 40
30.0
176
     0
 62
     7
420
 16777215
176
     0
 90
        1
176
     0
 90
        4
176
     0
 62
     7
176
     0
 62
   257
176
     0
 90
        1
176
     0
 90
        1
176
     0
 40
1.0
176
     0
 90
        8
176
     2
 62
     7
176
     0
 40
1.0
176
     0
 90
        1
176
     0
 90
        6
176
     0
 90
        2
176
     0
 62
     7
176
     0
 90
        5
176
     0
 90
        0
176
     0
 90
        0
176
     0
290
     0
176
     0
 90
        1
176
     0
 40
0.0
176
     0
 90
        0
176
     0
290
     0
176
     0
290
     1
176
     0
290
     1
176
     0
290
     0
176
     0
290
     0
176
     0
290
     0
176
     0
290
     0
176
     0
290
     0
176
     0
290
     0
176
     0
 90
       50
176
     0
 40
0.0
176
     0
 40
1.0
176
     0
 90
        0
176
     0
 62
    18
420
        0
176
     0
 90
       50
176
     0
 90
        3
176
     0
 62
     5
420
      255
176
     0
290
     0
176
     0
 90
       50
176
     0
 90
       50
176
     0
 90
       50
176
     0
290
     0
176
     0
 90
       50
176
     0
 62
   256
176
     0
 40
1.0
176
     0
 90
        2
176
     0
  1
strokes_ogs.tif
176
     0
290
     0
176
     0
 40
1.0
176
     0
 40
1.0
176
     0
  0
VISUALSTYLE
  5
39
102
{ACAD_REACTORS
330
2A
102
}
330
2A
100
AcDbVisualStyle
  2
Facepattern
 70
    15
177
     3
291
     1
 70
    58
 90
        2
176
     1
 90
        2
176
     1
 90
        0
176
     1
 90
        0
176
     1
 40
0.6
176
     1
 40
30.0
176
     1
 62
     7
420
 16777215
176
     1
 90
        1
176
     1
 90
        4
176
     1
 62
     7
176
     1
 62
   257
176
     1
 90
        1
176
     1
 90
        1
176
     1
 40
1.0
176
     1
 90
        8
176
     1
 62
     7
176
     1
 40
1.0
176
     1
 90
        1
176
     1
 90
        6
176
     1
 90
        2
176
     1
 62
     7
176
     1
 90
        5
176
     1
 90
        0
176
     1
 90
        0
176
     1
290
     0
176
     1
 90
        1
176
     1
 40
0.0
176
     1
 90
        0
176
     1
290
     0
176
     1
290
     1
176
     1
290
     1
176
     1
290
     0
176
     1
290
     0
176
     1
290
     0
176
     1
290
     0
176
     1
290
     0
176
     1
290
     0
176
     1
 90
       50
176
     1
 40
0.0
176
     1
 40
1.0
176
     1
 90
        0
176
     1
 62
    18
420
        0
176
     1
 90
       50
176
     1
 90
        3
176
     1
 62
     5
420
      255
176
     1
290
     0
176
     1
 90
       50
176
     1
 90
       50
176
     1
 90
       50
176
     1
290
     0
176
     1
 90
       50
176
     1
 62
   256
176
     0
 40
1.0
176
     0
 90
        2
176
     1
  1
strokes_ogs.tif
176
     1
290
     0
176
     1
 40
1.0
176
     1
 40
1.0
176
     1
  0
VISUALSTYLE
  5
2B
102
{ACAD_REACTORS
330
2A
102
}
330
2A
100
AcDbVisualStyle
  2
Flat
 70
     0
177
     3
291
     1
 70
    58
 90
        2
176
     1
 90
        1
176
     1
 90
        1
176
     1
 90
        2
176
     1
 40
0.6
176
     1
 40
30.0
176
     1
 62
     7
420
 16777215
176
     1
 90
        0
176
     1
 90
        0
176
     1
 62
     7
176
     1
 62
   257
176
     1
 90
        1
176
     1
 90
        1
176
     1
 40
1.0
176
     1
 90
        8
176
     1
 62
     7
176
     1
 40
1.0
176
     1
 90
        1
176
     1
 90
        6
176
     1
 90
        2
176
     1
 62
     7
176
     1
 90
        5
176
     1
 90
        0
176
     1
 90
        0
176
     1
290
     0
176
     1
 90
       13
176
     1
 40
0.0
176
     1
 90
        0
176
     1
290
     0
176
     1
290
     1
176
     1
290
     1
176
     1
290
     0
176
     1
290
     0
176
     1
290
     0
176
     1
290
     0
176
     1
290
     0
176
     1
290
     0
176
     1
 90
       50
176
     1
 40
0.0
176
     1
 40
1.0
176
     1
 90
        0
176
     1
 62
    18
420
        0
176
     1
 90
       50
176
     1
 90
        3
176
     1
 62
     5
420
      255
176
     1
290
     0
176
     1
 90
       50
176
     1
 90
       50
176
     1
 90
       50
176
     1
290
     0
176
     1
 90
       50
176
     1
 62
   256
176
     0
 40
1.0
176
     0
 90
        2
176
     1
  1
strokes_ogs.tif
176
     1
290
     0
176
     1
 40
1.0
176
     1
 40
1.0
176
     1
  0
VISUALSTYLE
  5
2C
102
{ACAD_REACTORS
330
2A
102
}
330
2A
100
AcDbVisualStyle
  2
FlatWithEdges
 70
     1
177
     3
291
     1
 70
    58
 90
        2
176
     1
 90
        1
176
     1
 90
        1
176
     1
 90
        2
176
     1
 40
0.6
176
     1
 40
30.0
176
     1
 62
     7
420
 16777215
176
     1
 90
        1
176
     1
 90
        0
176
     1
 62
     7
176
     1
 62
   257
176
     1
 90
        1
176
     1
 90
        1
176
     1
 40
1.0
176
     1
 90
        0
176
     1
 62
   257
176
     1
 40
1.0
176
     1
 90
        1
176
     1
 90
        6
176
     1
 90
        2
176
     1
 62
     7
176
     1
 90
        5
176
     1
 90
        0
176
     1
 90
        0
176
     1
290
     0
176
     1
 90
       13
176
     1
 40
0.0
176
     1
 90
        0
176
     1
290
     0
176
     1
290
     1
176
     1
290
     1
176
     1
290
     0
176
     1
290
     0
176
     1
290
     0
176
     1
290
     0
176
     1
290
     0
176
     1
290
     0
176
     1
 90
       50
176
     1
 40
0.0
176
     1
 40
1.0
176
     1
 90
        0
176
     1
 62
    18
420
        0
176
     1
 90
       50
176
     1
 90
        3
176
     1
 62
     5
420
      255
176
     1
290
     0
176
     1
 90
       50
176
     1
 90
       50
176
     1
 90
       50
176
     1
290
     0
176
     1
 90
       50
176
     1
 62
   256
176
     0
 40
1.0
176
     0
 90
        2
176
     1
  1
strokes_ogs.tif
176
     1
290
     0
176
     1
 40
1.0
176
     1
 40
1.0
176
     1
  0
VISUALSTYLE
  5
2D
102
{ACAD_REACTORS
330
2A
102
}
330
2A
100
AcDbVisualStyle
  2
Gouraud
 70
     2
177
     3
291
     1
 70
    58
 90
        2
176
     1
 90
        2
176
     1
 90
        1
176
     1
 90
        2
176
     1
 40
0.6
176
     1
 40
30.0
176
     1
 62
     7
420
 16777215
176
     1
 90
        0
176
     1
 90
        0
176
     1
 62
     7
176
     1
 62
   257
176
     1
 90
        1
176
     1
 90
        1
176
     1
 40
1.0
176
     1
 90
        0
176
     1
 62
     7
176
     1
 40
1.0
176
     1
 90
        1
176
     1
 90
        6
176
     1
 90
        2
176
     1
 62
     7
176
     1
 90
        5
176
     1
 90
        0
176
     1
 90
        0
176
     1
290
     0
176
     1
 90
       13
176
     1
 40
0.0
176
     1
 90
        0
176
     1
290
     0
176
     1
290
     1
176
     1
290
     1
176
     1
290
     0
176
     1
290
     0
176
     1
290
     0
176
     1
290
     0
176
     1
290
     0
176
     1
290
     0
176
     1
 90
       50
176
     1
 40
0.0
176
     1
 40
1.0
176
     1
 90
        0
176
     1
 62
    18
420
        0
176
     1
 90
       50
176
     1
 90
        3
176
     1
 62
     5
420
      255
176
     1
290
     0
176
     1
 90
       50
176
     1
 90
       50
176
     1
 90
       50
176
     1
290
     0
176
     1
 90
       50
176
     1
 62
   256
176
     0
 40
1.0
176
     0
 90
        2
176
     1
  1
strokes_ogs.tif
176
     1
290
     0
176
     1
 40
1.0
176
     1
 40
1.0
176
     1
  0
VISUALSTYLE
  5
2E
102
{ACAD_REACTORS
330
2A
102
}
330
2A
100
AcDbVisualStyle
  2
GouraudWithEdges
 70
     3
177
     3
291
     1
 70
    58
 90
        2
176
     1
 90
        2
176
     1
 90
        1
176
     1
 90
        2
176
     1
 40
0.6
176
     1
 40
30.0
176
     1
 62
     7
420
 16777215
176
     1
 90
        1
176
     1
 90
        0
176
     1
 62
     7
176
     1
 62
   257
176
     1
 90
        1
176
     1
 90
        1
176
     1
 40
1.0
176
     1
 90
        0
176
     1
 62
   257
176
     1
 40
1.0
176
     1
 90
        1
176
     1
 90
        6
176
     1
 90
        2
176
     1
 62
     7
176
     1
 90
        5
176
     1
 90
        0
176
     1
 90
        0
176
     1
290
     0
176
     1
 90
       13
176
     1
 40
0.0
176
     1
 90
        0
176
     1
290
     0
176
     1
290
     1
176
     1
290
     1
176
     1
290
     0
176
     1
290
     0
176
     1
290
     0
176
     1
290
     0
176
     1
290
     0
176
     1
290
     0
176
     1
 90
       50
176
     1
 40
0.0
176
     1
 40
1.0
176
     1
 90
        0
176
     1
 62
    18
420
        0
176
     1
 90
       50
176
     1
 90
        3
176
     1
 62
     5
420
      255
176
     1
290
     0
176
     1
 90
       50
176
     1
 90
       50
176
     1
 90
       50
176
     1
290
     0
176
     1
 90
       50
176
     1
 62
   256
176
     0
 40
1.0
176
     0
 90
        2
176
     1
  1
strokes_ogs.tif
176
     1
290
     0
176
     1
 40
1.0
176
     1
 40
1.0
176
     1
  0
VISUALSTYLE
  5
31
102
{ACAD_REACTORS
330
2A
102
}
330
2A
100
AcDbVisualStyle
  2
Hidden
 70
     6
177
     3
291
     0
 70
    58
 90
        1
176
     1
 90
        2
176
     1
 90
        2
176
     1
 90
        0
176
     1
 40
0.6
176
     1
 40
30.0
176
     1
 62
     7
420
 16777215
176
     1
 90
        2
176
     1
 90
        2
176
     1
 62
     7
176
     1
 62
   257
176
     1
 90
        2
176
     1
 90
        1
176
     1
 40
40.0
176
     1
 90
        0
176
     1
 62
   257
176
     1
 40
1.0
176
     1
 90
        1
176
     1
 90
        6
176
     1
 90
        2
176
     1
 62
     7
176
     1
 90
        3
176
     1
 90
        0
176
     1
 90
        0
176
     1
290
     0
176
     1
 90
        1
176
     1
 40
0.0
176
     1
 90
        0
176
     1
290
     0
176
     1
290
     1
176
     1
290
     1
176
     1
290
     0
176
     1
290
     0
176
     1
290
     0
176
     1
290
     0
176
     1
290
     0
176
     1
290
     0
176
     1
 90
       50
176
     1
 40
0.0
176
     1
 40
1.0
176
     1
 90
        0
176
     1
 62
    18
420
        0
176
     1
 90
       50
176
     1
 90
        3
176
     1
 62
     5
420
      255
176
     1
290
     0
176
     1
 90
       50
176
     1
 90
       50
176
     1
 90
       50
176
     1
290
     0
176
     1
 90
       50
176
     1
 62
   256
176
     0
 40
1.0
176
     0
 90
        2
176
     1
  1
strokes_ogs.tif
176
     1
290
     0
176
     1
 40
1.0
176
     1
 40
1.0
176
     1
  0
VISUALSTYLE
  5
3B
102
{ACAD_REACTORS
330
2A
102
}
330
2A
100
AcDbVisualStyle
  2
JitterOff
 70
    20
177
     3
291
     1
 70
    58
 90
        2
176
     0
 90
        2
176
     0
 90
        0
176
     0
 90
        0
176
     0
 40
0.6
176
     0
 40
30.0
176
     0
 62
     7
420
 16777215
176
     0
 90
        1
176
     0
 90
        4
176
     0
 62
     7
176
     0
 62
   257
176
     0
 90
        1
176
     0
 90
        1
176
     0
 40
1.0
176
     0
 90
       10
176
     2
 62
     7
176
     0
 40
1.0
176
     0
 90
        1
176
     0
 90
        6
176
     0
 90
        2
176
     0
 62
     7
176
     0
 90
        5
176
     0
 90
        0
176
     0
 90
        0
176
     0
290
     0
176
     0
 90
        1
176
     0
 40
0.0
176
     0
 90
        0
176
     0
290
     0
176
     0
290
     1
176
     0
290
     1
176
     0
290
     0
176
     0
290
     0
176
     0
290
     0
176
     0
290
     0
176
     0
290
     0
176
     0
290
     0
176
     0
 90
       50
176
     0
 40
0.0
176
     0
 40
1.0
176
     0
 90
        0
176
     0
 62
    18
420
        0
176
     0
 90
       50
176
     0
 90
        3
176
     0
 62
     5
420
      255
176
     0
290
     0
176
     0
 90
       50
176
     0
 90
       50
176
     0
 90
       50
176
     0
290
     0
176
     0
 90
       50
176
     0
 62
   256
176
     0
 40
1.0
176
     0
 90
        2
176
     0
  1
strokes_ogs.tif
176
     0
290
     0
176
     0
 40
1.0
176
     0
 40
1.0
176
     0
  0
VISUALSTYLE
  5
38
102
{ACAD_REACTORS
330
2A
102
}
330
2A
100
AcDbVisualStyle
  2
Linepattern
 70
    14
177
     3
291
     1
 70
    58
 90
        2
176
     1
 90
        2
176
     1
 90
        0
176
     1
 90
        0
176
     1
 40
0.6
176
     1
 40
30.0
176
     1
 62
     7
420
 16777215
176
     1
 90
        1
176
     1
 90
        4
176
     1
 62
     7
176
     1
 62
   257
176
     1
 90
        7
176
     1
 90
        7
176
     1
 40
1.0
176
     1
 90
        8
176
     1
 62
     7
176
     1
 40
1.0
176
     1
 90
        1
176
     1
 90
        6
176
     1
 90
        2
176
     1
 62
     7
176
     1
 90
        5
176
     1
 90
        0
176
     1
 90
        0
176
     1
290
     0
176
     1
 90
        1
176
     1
 40
0.0
176
     1
 90
        0
176
     1
290
     0
176
     1
290
     1
176
     1
290
     1
176
     1
290
     0
176
     1
290
     0
176
     1
290
     0
176
     1
290
     0
176
     1
290
     0
176
     1
290
     0
176
     1
 90
       50
176
     1
 40
0.0
176
     1
 40
1.0
176
     1
 90
        0
176
     1
 62
    18
420
        0
176
     1
 90
       50
176
     1
 90
        3
176
     1
 62
     5
420
      255
176
     1
290
     0
176
     1
 90
       50
176
     1
 90
       50
176
     1
 90
       50
176
     1
290
     0
176
     1
 90
       50
176
     1
 62
   256
176
     0
 40
1.0
176
     0
 90
        2
176
     1
  1
strokes_ogs.tif
176
     1
290
     0
176
     1
 40
1.0
176
     1
 40
1.0
176
     1
  0
VISUALSTYLE
  5
3C
102
{ACAD_REACTORS
330
2A
102
}
330
2A
100
AcDbVisualStyle
  2
OverhangOff
 70
    21
177
     3
291
     1
 70
    58
 90
        2
176
     0
 90
        2
176
     0
 90
        0
176
     0
 90
        0
176
     0
 40
0.6
176
     0
 40
30.0
176
     0
 62
     7
420
 16777215
176
     0
 90
        1
176
     0
 90
        4
176
     0
 62
     7
176
     0
 62
   257
176
     0
 90
        1
176
     0
 90
        1
176
     0
 40
1.0
176
     0
 90
        9
176
     2
 62
     7
176
     0
 40
1.0
176
     0
 90
        1
176
     0
 90
        6
176
     0
 90
        2
176
     0
 62
     7
176
     0
 90
        5
176
     0
 90
        0
176
     0
 90
        0
176
     0
290
     0
176
     0
 90
        1
176
     0
 40
0.0
176
     0
 90
        0
176
     0
290
     0
176
     0
290
     1
176
     0
290
     1
176
     0
290
     0
176
     0
290
     0
176
     0
290
     0
176
     0
290
     0
176
     0
290
     0
176
     0
290
     0
176
     0
 90
       50
176
     0
 40
0.0
176
     0
 40
1.0
176
     0
 90
        0
176
     0
 62
    18
420
        0
176
     0
 90
       50
176
     0
 90
        3
176
     0
 62
     5
420
      255
176
     0
290
     0
176
     0
 90
       50
176
     0
 90
       50
176
     0
 90
       50
176
     0
290
     0
176
     0
 90
       50
176
     0
 62
   256
176
     0
 40
1.0
176
     0
 90
        2
176
     0
  1
strokes_ogs.tif
176
     0
290
     0
176
     0
 40
1.0
176
     0
 40
1.0
176
     0
  0
VISUALSTYLE
  5
33
102
{ACAD_REACTORS
330
2A
102
}
330
2A
100
AcDbVisualStyle
  2
Realistic
 70
     8
177
     3
291
     0
 70
    58
 90
        2
176
     1
 90
        3
176
     1
 90
        0
176
     1
 90
        2
176
     1
 40
0.6
176
     1
 40
30.0
176
     1
 62
     7
420
 16777215
176
     1
 90
        0
176
     1
 90
        0
176
     1
 62
     7
176
     1
 62
   257
176
     1
 90
        1
176
     1
 90
        1
176
     1
 40
1.0
176
     1
 90
        8
176
     1
 62
   257
176
     1
 40
1.0
176
     1
 90
        1
176
     1
 90
        6
176
     1
 90
        2
176
     1
 62
     7
176
     1
 90
        3
176
     1
 90
        0
176
     1
 90
        0
176
     1
290
     0
176
     1
 90
       13
176
     1
 40
0.0
176
     1
 90
        0
176
     1
290
     0
176
     1
290
     1
176
     1
290
     1
176
     1
290
     0
176
     1
290
     0
176
     1
290
     0
176
     1
290
     0
176
     1
290
     0
176
     1
290
     0
176
     1
 90
       50
176
     1
 40
0.0
176
     1
 40
1.0
176
     1
 90
        0
176
     1
 62
    18
420
        0
176
     1
 90
       50
176
     1
 90
        3
176
     1
 62
     5
420
      255
176
     1
290
     0
176
     1
 90
       50
176
     1
 90
       50
176
     1
 90
       50
176
     1
290
     0
176
     1
 90
       50
176
     1
 62
   256
176
     0
 40
1.0
176
     0
 90
        2
176
     1
  1
strokes_ogs.tif
176
     1
290
     0
176
     1
 40
1.0
176
     1
 40
1.0
176
     1
  0
VISUALSTYLE
  5
42
102
{ACAD_REACTORS
330
2A
102
}
330
2A
100
AcDbVisualStyle
  2
Shaded
 70
    27
177
     3
291
     0
 70
    58
 90
        2
176
     1
 90
        2
176
     1
 90
        1
176
     1
 90
        2
176
     1
 40
0.6
176
     1
 40
30.0
176
     1
 62
     7
420
 16777215
176
     1
 90
        0
176
     1
 90
        4
176
     1
 62
     7
176
     1
 62
   257
176
     1
 90
        1
176
     1
 90
        1
176
     1
 40
1.0
176
     1
 90
        8
176
     1
 62
   257
176
     1
 40
1.0
176
     1
 90
        1
176
     1
 90
        6
176
     1
 90
        2
176
     1
 62
     8
420
  7895160
176
     1
 90
        3
176
     1
 90
        0
176
     1
 90
        0
176
     1
290
     0
176
     1
 90
        5
176
     1
 40
0.0
176
     1
 90
        0
176
     1
290
     0
176
     1
290
     1
176
     1
290
     1
176
     1
290
     0
176
     1
290
     0
176
     1
290
     0
176
     1
290
     0
176
     1
290
     0
176
     1
290
     0
176
     1
 90
       50
176
     1
 40
0.0
176
     1
 40
1.0
176
     1
 90
        0
176
     1
 62
    18
420
        0
176
     1
 90
       50
176
     1
 90
        3
176
     1
 62
     5
420
      255
176
     1
290
     0
176
     1
 90
       50
176
     1
 90
       50
176
     1
 90
       50
176
     1
290
     0
176
     1
 90
       50
176
     1
 62
   256
176
     0
 40
1.0
176
     0
 90
        2
176
     1
  1
strokes_ogs.tif
176
     1
290
     0
176
     1
 40
1.0
176
     1
 40
1.0
176
     1
  0
VISUALSTYLE
  5
41
102
{ACAD_REACTORS
330
2A
102
}
330
2A
100
AcDbVisualStyle
  2
Shaded with edges
 70
    26
177
     3
291
     0
 70
    58
 90
        2
176
     1
 90
        2
176
     1
 90
        1
176
     1
 90
        2
176
     1
 40
0.6
176
     1
 40
30.0
176
     1
 62
     7
420
 16777215
176
     1
 90
        1
176
     1
 90
       10
176
     1
 62
     7
176
     1
 62
   257
176
     1
 90
        2
176
     1
 90
        1
176
     1
 40
1.0
176
     1
 90
        8
176
     1
 62
   257
176
     1
 40
1.0
176
     1
 90
        1
176
     1
 90
        6
176
     1
 90
        2
176
     1
 62
     7
176
     1
 90
        3
176
     1
 90
        0
176
     1
 90
        0
176
     1
290
     0
176
     1
 90
        5
176
     1
 40
0.0
176
     1
 90
        0
176
     1
290
     0
176
     1
290
     1
176
     1
290
     1
176
     1
290
     0
176
     1
290
     0
176
     1
290
     0
176
     1
290
     0
176
     1
290
     0
176
     1
290
     0
176
     1
 90
       50
176
     1
 40
0.0
176
     1
 40
1.0
176
     1
 90
        0
176
     1
 62
    18
420
        0
176
     1
 90
       50
176
     1
 90
        3
176
     1
 62
     5
420
      255
176
     1
290
     0
176
     1
 90
       50
176
     1
 90
       50
176
     1
 90
       50
176
     1
290
     0
176
     1
 90
       50
176
     1
 62
   256
176
     0
 40
1.0
176
     0
 90
        2
176
     1
  1
strokes_ogs.tif
176
     1
290
     0
176
     1
 40
1.0
176
     1
 40
1.0
176
     1
  0
VISUALSTYLE
  5
3E
102
{ACAD_REACTORS
330
2A
102
}
330
2A
100
AcDbVisualStyle
  2
Shades of Gray
 70
    23
177
     3
291
     0
 70
    58
 90
        2
176
     1
 90
        2
176
     1
 90
        3
176
     1
 90
        0
176
     1
 40
0.6
176
     1
 40
30.0
176
     1
 62
     7
420
 16777215
176
     1
 90
        2
176
     1
 90
        2
176
     1
 62
     7
176
     1
 62
     7
176
     1
 90
        1
176
     1
 90
        1
176
     1
 40
40.0
176
     1
 90
        8
176
     1
 62
     7
176
     1
 40
1.0
176
     1
 90
        1
176
     1
 90
        6
176
     1
 90
        2
176
     1
 62
     7
176
     1
 90
        3
176
     1
 90
        0
176
     1
 90
        0
176
     1
290
     0
176
     1
 90
        1
176
     1
 40
0.0
176
     1
 90
        0
176
     1
290
     0
176
     1
290
     1
176
     1
290
     1
176
     1
290
     0
176
     1
290
     0
176
     1
290
     0
176
     1
290
     0
176
     1
290
     0
176
     1
290
     0
176
     1
 90
       50
176
     1
 40
0.0
176
     1
 40
1.0
176
     1
 90
        0
176
     1
 62
    18
420
        0
176
     1
 90
       50
176
     1
 90
        3
176
     1
 62
     5
420
      255
176
     1
290
     0
176
     1
 90
       50
176
     1
 90
       50
176
     1
 90
       50
176
     1
290
     0
176
     1
 90
       50
176
     1
 62
   256
176
     0
 40
1.0
176
     0
 90
        2
176
     1
  1
strokes_ogs.tif
176
     1
290
     0
176
     1
 40
1.0
176
     1
 40
1.0
176
     1
  0
VISUALSTYLE
  5
3F
102
{ACAD_REACTORS
330
2A
102
}
330
2A
100
AcDbVisualStyle
  2
Sketchy
 70
    24
177
     3
291
     0
 70
    58
 90
        1
176
     1
 90
        2
176
     1
 90
        2
176
     1
 90
        0
176
     1
 40
0.6
176
     1
 40
30.0
176
     1
 62
     7
420
 16777215
176
     1
 90
        2
176
     1
 90
        2
176
     1
 62
     7
176
     1
 62
     7
176
     1
 90
        1
176
     1
 90
        1
176
     1
 40
40.0
176
     1
 90
       11
176
     1
 62
     7
176
     1
 40
1.0
176
     1
 90
        1
176
     1
 90
        6
176
     1
 90
        2
176
     1
 62
     7
176
     1
 90
        6
176
     1
 90
        0
176
     1
 90
        0
176
     1
290
     0
176
     1
 90
        1
176
     1
 40
0.0
176
     1
 90
        0
176
     1
290
     0
176
     1
290
     1
176
     1
290
     1
176
     1
290
     0
176
     1
290
     0
176
     1
290
     0
176
     1
290
     0
176
     1
290
     0
176
     1
290
     0
176
     1
 90
       50
176
     1
 40
0.0
176
     1
 40
1.0
176
     1
 90
        0
176
     1
 62
    18
420
        0
176
     1
 90
       50
176
     1
 90
        3
176
     1
 62
     5
420
      255
176
     1
290
     0
176
     1
 90
       50
176
     1
 90
       50
176
     1
 90
       50
176
     1
290
     0
176
     1
 90
       50
176
     1
 62
   256
176
     0
 40
1.0
176
     0
 90
        2
176
     1
  1
strokes_ogs.tif
176
     1
290
     0
176
     1
 40
1.0
176
     1
 40
1.0
176
     1
  0
VISUALSTYLE
  5
37
102
{ACAD_REACTORS
330
2A
102
}
330
2A
100
AcDbVisualStyle
  2
Thicken
 70
    13
177
     3
291
     1
 70
    58
 90
        2
176
     1
 90
        2
176
     1
 90
        0
176
     1
 90
        0
176
     1
 40
0.6
176
     1
 40
30.0
176
     1
 62
     7
420
 16777215
176
     1
 90
        1
176
     1
 90
        4
176
     1
 62
     7
176
     1
 62
   257
176
     1
 90
        1
176
     1
 90
        1
176
     1
 40
1.0
176
     1
 90
       12
176
     1
 62
     7
176
     1
 40
1.0
176
     1
 90
        1
176
     1
 90
        6
176
     1
 90
        2
176
     1
 62
     7
176
     1
 90
        5
176
     1
 90
        0
176
     1
 90
        0
176
     1
290
     0
176
     1
 90
        1
176
     1
 40
0.0
176
     1
 90
        0
176
     1
290
     0
176
     1
290
     1
176
     1
290
     1
176
     1
290
     0
176
     1
290
     0
176
     1
290
     0
176
     1
290
     0
176
     1
290
     0
176
     1
290
     0
176
     1
 90
       50
176
     1
 40
0.0
176
     1
 40
1.0
176
     1
 90
        0
176
     1
 62
    18
420
        0
176
     1
 90
       50
176
     1
 90
        3
176
     1
 62
     5
420
      255
176
     1
290
     0
176
     1
 90
       50
176
     1
 90
       50
176
     1
 90
       50
176
     1
290
     0
176
     1
 90
       50
176
     1
 62
   256
176
     0
 40
1.0
176
     0
 90
        2
176
     1
  1
strokes_ogs.tif
176
     1
290
     0
176
     1
 40
1.0
176
     1
 40
1.0
176
     1
  0
VISUALSTYLE
  5
30
102
{ACAD_REACTORS
330
2A
102
}
330
2A
100
AcDbVisualStyle
  2
Wireframe
 70
     5
177
     3
291
     0
 70
    58
 90
        0
176
     1
 90
        2
176
     1
 90
        0
176
     1
 90
        0
176
     1
 40
0.6
176
     1
 40
30.0
176
     1
 62
     7
420
 16777215
176
     1
 90
        1
176
     1
 90
        4
176
     1
 62
     7
176
     1
 62
   257
176
     1
 90
        1
176
     1
 90
        1
176
     1
 40
1.0
176
     1
 90
        0
176
     1
 62
   257
176
     1
 40
1.0
176
     1
 90
        1
176
     1
 90
        6
176
     1
 90
        2
176
     1
 62
     7
176
     1
 90
        3
176
     1
 90
        0
176
     1
 90
        0
176
     1
290
     0
176
     1
 90
        1
176
     1
 40
0.0
176
     1
 90
        0
176
     1
290
     0
176
     1
290
     1
176
     1
290
     1
176
     1
290
     0
176
     1
290
     0
176
     1
290
     0
176
     1
290
     0
176
     1
290
     0
176
     1
290
     0
176
     1
 90
       50
176
     1
 40
0.0
176
     1
 40
1.0
176
     1
 90
        0
176
     1
 62
    18
420
        0
176
     1
 90
       50
176
     1
 90
        3
176
     1
 62
     5
420
      255
176
     1
290
     0
176
     1
 90
       50
176
     1
 90
       50
176
     1
 90
       50
176
     1
290
     0
176
     1
 90
       50
176
     1
 62
   256
176
     0
 40
1.0
176
     0
 90
        2
176
     1
  1
strokes_ogs.tif
176
     1
290
     0
176
     1
 40
1.0
176
     1
 40
1.0
176
     1
  0
VISUALSTYLE
  5
40
102
{ACAD_REACTORS
330
2A
102
}
330
2A
100
AcDbVisualStyle
  2
X-Ray
 70
    25
177
     3
291
     0
 70
    58
 90
        2
176
     1
 90
        2
176
     1
 90
        1
176
     1
 90
        1
176
     1
 40
0.5
176
     1
 40
30.0
176
     1
 62
     7
420
 16777215
176
     1
 90
        1
176
     1
 90
        0
176
     1
 62
     7
176
     1
 62
   257
176
     1
 90
        1
176
     1
 90
        1
176
     1
 40
1.0
176
     1
 90
        8
176
     1
 62
     7
176
     1
 40
1.0
176
     1
 90
        1
176
     1
 90
        6
176
     1
 90
        2
176
     1
 62
     7
176
     1
 90
        3
176
     1
 90
        0
176
     1
 90
        0
176
     1
290
     0
176
     1
 90
       13
176
     1
 40
0.0
176
     1
 90
        0
176
     1
290
     0
176
     1
290
     1
176
     1
290
     1
176
     1
290
     0
176
     1
290
     0
176
     1
290
     0
176
     1
290
     0
176
     1
290
     0
176
     1
290
     0
176
     1
 90
       50
176
     1
 40
0.0
176
     1
 40
1.0
176
     1
 90
        0
176
     1
 62
    18
420
        0
176
     1
 90
       50
176
     1
 90
        3
176
     1
 62
     5
420
      255
176
     1
290
     0
176
     1
 90
       50
176
     1
 90
       50
176
     1
 90
       50
176
     1
290
     0
176
     1
 90
       50
176
     1
 62
   256
176
     0
 40
1.0
176
     0
 90
        2
176
     1
  1
strokes_ogs.tif
176
     1
290
     0
176
     1
 40
1.0
176
     1
 40
1.0
176
     1
  0
DICTIONARYVAR
  5
DB
102
{ACAD_REACTORS
330
DA
102
}
330
DA
100
DictionaryVariables
280
     0
  1
1:1
  0
DICTIONARYVAR
  5
11C
102
{ACAD_REACTORS
330
DA
102
}
330
DA
100
DictionaryVariables
280
     0
  1
STANDARD
  0
DICTIONARYVAR
  5
11B
102
{ACAD_REACTORS
330
DA
102
}
330
DA
100
DictionaryVariables
280
     0
  1
STANDARD
  0
DICTIONARYVAR
  5
148
102
{ACAD_REACTORS
330
DA
102
}
330
DA
100
DictionaryVariables
280
     0
  1
Imperial24
  0
DICTIONARYVAR
  5
149
102
{ACAD_REACTORS
330
DA
102
}
330
DA
100
DictionaryVariables
280
     0
  1
Imperial24
  0
DICTIONARYVAR
  5
14B
102
{ACAD_REACTORS
330
DA
102
}
330
DA
100
DictionaryVariables
280
     0
  1
1
  0
DICTIONARYVAR
  5
14C
102
{ACAD_REACTORS
330
DA
102
}
330
DA
100
DictionaryVariables
280
     0
  1
15
  0
DICTIONARYVAR
  5
14A
102
{ACAD_REACTORS
330
DA
102
}
330
DA
100
DictionaryVariables
280
     0
  1
0
  0
DICTIONARYVAR
  5
DC
102
{ACAD_REACTORS
330
DA
102
}
330
DA
100
DictionaryVariables
280
     0
  1
1
  0
DICTIONARY
  5
150
330
122
100
AcDbDictionary
280
     1
281
     1
  3
ACAD_XREC_ROUNDTRIP
360
151
  0
DICTIONARY
  5
14E
330
121
100
AcDbDictionary
280
     1
281
     1
  3
ACAD_XREC_ROUNDTRIP
360
14F
  0
DICTIONARY
  5
114
330
6A
100
AcDbDictionary
280
     1
281
     1
  3
ACAD_ROUNDTRIP_2008_TABLESTYLE_CELLSTYLEMAP
360
14D
  0
XRECORD
  5
151
102
{ACAD_REACTORS
330
150
102
}
330
150
100
AcDbXrecord
280
     1
102
DISPLAYNAME
  1
Imperial24
102
FLAGS
 90
        0
  0
XRECORD
  5
14F
102
{ACAD_REACTORS
330
14E
102
}
330
14E
100
AcDbXrecord
280
     1
102
DISPLAYNAME
  1
Imperial24
102
FLAGS
 90
        0
  0
CELLSTYLEMAP
  5
14D
102
{ACAD_REACTORS
330
114
102
}
330
114
100
AcDbCellStyleMap
 90
        3
300
CELLSTYLE
  1
TABLEFORMAT_BEGIN
 90
        5
170
     1
 91
        0
 92
    32768
 62
   257
 93
        1
300
CONTENTFORMAT
  1
CONTENTFORMAT_BEGIN
 90
        0
 91
        0
 92
        4
 93
        0
300

 40
0.0
140
1.0
 94
        5
 62
     0
340
11
144
0.25
309
CONTENTFORMAT_END
171
     1
301
MARGIN
  1
CELLMARGIN_BEGIN
 40
0.06
 40
0.06
 40
0.06
 40
0.06
 40
0.06
 40
0.06
309
CELLMARGIN_END
 94
        6
 95
        1
302
GRIDFORMAT
  1
GRIDFORMAT_BEGIN
 90
        0
 91
        1
 62
     0
 92
       -2
340
14
 93
        0
 40
0.045
309
GRIDFORMAT_END
 95
        2
302
GRIDFORMAT
  1
GRIDFORMAT_BEGIN
 90
        0
 91
        1
 62
     0
 92
       -2
340
14
 93
        0
 40
0.045
309
GRIDFORMAT_END
 95
        4
302
GRIDFORMAT
  1
GRIDFORMAT_BEGIN
 90
        0
 91
        1
 62
     0
 92
       -2
340
14
 93
        0
 40
0.045
309
GRIDFORMAT_END
 95
        8
302
GRIDFORMAT
  1
GRIDFORMAT_BEGIN
 90
        0
 91
        1
 62
     0
 92
       -2
340
14
 93
        0
 40
0.045
309
GRIDFORMAT_END
 95
       16
302
GRIDFORMAT
  1
GRIDFORMAT_BEGIN
 90
        0
 91
        1
 62
     0
 92
       -2
340
14
 93
        0
 40
0.045
309
GRIDFORMAT_END
 95
       32
302
GRIDFORMAT
  1
GRIDFORMAT_BEGIN
 90
        0
 91
        1
 62
     0
 92
       -2
340
14
 93
        0
 40
0.045
309
GRIDFORMAT_END
309
TABLEFORMAT_END
  1
CELLSTYLE_BEGIN
 90
        1
 91
        1
300
_TITLE
309
CELLSTYLE_END
300
CELLSTYLE
  1
TABLEFORMAT_BEGIN
 90
        5
170
     1
 91
        0
 92
        0
 62
   257
 93
        1
300
CONTENTFORMAT
  1
CONTENTFORMAT_BEGIN
 90
        0
 91
        0
 92
        4
 93
        0
300

 40
0.0
140
1.0
 94
        5
 62
     0
340
11
144
0.18
309
CONTENTFORMAT_END
171
     1
301
MARGIN
  1
CELLMARGIN_BEGIN
 40
0.06
 40
0.06
 40
0.06
 40
0.06
 40
0.06
 40
0.06
309
CELLMARGIN_END
 94
        6
 95
        1
302
GRIDFORMAT
  1
GRIDFORMAT_BEGIN
 90
        0
 91
        1
 62
     0
 92
       -2
340
14
 93
        0
 40
0.045
309
GRIDFORMAT_END
 95
        2
302
GRIDFORMAT
  1
GRIDFORMAT_BEGIN
 90
        0
 91
        1
 62
     0
 92
       -2
340
14
 93
        0
 40
0.045
309
GRIDFORMAT_END
 95
        4
302
GRIDFORMAT
  1
GRIDFORMAT_BEGIN
 90
        0
 91
        1
 62
     0
 92
       -2
340
14
 93
        0
 40
0.045
309
GRIDFORMAT_END
 95
        8
302
GRIDFORMAT
  1
GRIDFORMAT_BEGIN
 90
        0
 91
        1
 62
     0
 92
       -2
340
14
 93
        0
 40
0.045
309
GRIDFORMAT_END
 95
       16
302
GRIDFORMAT
  1
GRIDFORMAT_BEGIN
 90
        0
 91
        1
 62
     0
 92
       -2
340
14
 93
        0
 40
0.045
309
GRIDFORMAT_END
 95
       32
302
GRIDFORMAT
  1
GRIDFORMAT_BEGIN
 90
        0
 91
        1
 62
     0
 92
       -2
340
14
 93
        0
 40
0.045
309
GRIDFORMAT_END
309
TABLEFORMAT_END
  1
CELLSTYLE_BEGIN
 90
        2
 91
        1
300
_HEADER
309
CELLSTYLE_END
300
CELLSTYLE
  1
TABLEFORMAT_BEGIN
 90
        5
170
     1
 91
        0
 92
        0
 62
   257
 93
        1
300
CONTENTFORMAT
  1
CONTENTFORMAT_BEGIN
 90
        0
 91
        0
 92
        4
 93
        0
300

 40
0.0
140
1.0
 94
        2
 62
     0
340
11
144
0.18
309
CONTENTFORMAT_END
171
     1
301
MARGIN
  1
CELLMARGIN_BEGIN
 40
0.06
 40
0.06
 40
0.06
 40
0.06
 40
0.06
 40
0.06
309
CELLMARGIN_END
 94
        6
 95
        1
302
GRIDFORMAT
  1
GRIDFORMAT_BEGIN
 90
        0
 91
        1
 62
     0
 92
       -2
340
14
 93
        0
 40
0.045
309
GRIDFORMAT_END
 95
        2
302
GRIDFORMAT
  1
GRIDFORMAT_BEGIN
 90
        0
 91
        1
 62
     0
 92
       -2
340
14
 93
        0
 40
0.045
309
GRIDFORMAT_END
 95
        4
302
GRIDFORMAT
  1
GRIDFORMAT_BEGIN
 90
        0
 91
        1
 62
     0
 92
       -2
340
14
 93
        0
 40
0.045
309
GRIDFORMAT_END
 95
        8
302
GRIDFORMAT
  1
GRIDFORMAT_BEGIN
 90
        0
 91
        1
 62
     0
 92
       -2
340
14
 93
        0
 40
0.045
309
GRIDFORMAT_END
 95
       16
302
GRIDFORMAT
  1
GRIDFORMAT_BEGIN
 90
        0
 91
        1
 62
     0
 92
       -2
340
14
 93
        0
 40
0.045
309
GRIDFORMAT_END
 95
       32
302
GRIDFORMAT
  1
GRIDFORMAT_BEGIN
 90
        0
 91
        1
 62
     0
 92
       -2
340
14
 93
        0
 40
0.045
309
GRIDFORMAT_END
309
TABLEFORMAT_END
  1
CELLSTYLE_BEGIN
 90
        3
 91
        2
300
_DATA
309
CELLSTYLE_END
  0
ENDSEC
  0
SECTION
  2
ACDSDATA
 70
     2
 71
     8
  0
ACDSSCHEMA
 90
        0
  1
AcDb_Thumbnail_Schema
  2
AcDbDs::ID
280
    10
 91
        8
  2
Thumbnail_Data
280
    15
 91
        0
101
ACDSRECORD
 95
        0
 90
        1
  2
AcDbDs::TreatedAsObjectData
280
     1
291
     1
101
ACDSRECORD
 95
        0
 90
        2
  2
AcDbDs::Legacy
280
     1
291
     1
101
ACDSRECORD
  1
AcDbDs::ID
 90
        3
  2
AcDs:Indexable
280
     1
291
     1
101
ACDSRECORD
  1
AcDbDs::ID
 90
        4
  2
AcDbDs::HandleAttribute
280
     7
282
     1
  0
ACDSSCHEMA
 90
        1
  1
AcDbDs::TreatedAsObjectDataSchema
  2
AcDbDs::TreatedAsObjectData
280
     1
 91
        0
  0
ACDSSCHEMA
 90
        2
  1
AcDbDs::LegacySchema
  2
AcDbDs::Legacy
280
     1
 91
        0
  0
ACDSSCHEMA
 90
        3
  1
AcDbDs::IndexedPropertySchema
  2
AcDs:Indexable
280
     1
 91
        0
  0
ACDSSCHEMA
 90
        4
  1
AcDbDs::HandleAttributeSchema
  2
AcDbDs::HandleAttribute
280
     7
 91
        1
284
     1
  0
ACDSRECORD
 90
        0
  2
AcDbDs::ID
280
    10
320
22
  2
Thumbnail_Data
280
    15
 94
     1276
310
89504E470D0A1A0A0000000D49484452000001000000009208030000009D75E4A800000300504C54452128300000000000000000000000000000000000000000000000000000000000000000330000660000990000CC0000FF0033000033330033660033990033CC0033FF0066000066330066660066990066CC0066FF0099
310
000099330099660099990099CC0099FF00CC0000CC3300CC6600CC9900CCCC00CCFF00FF0000FF3300FF6600FF9900FFCC00FFFF3300003300333300663300993300CC3300FF3333003333333333663333993333CC3333FF3366003366333366663366993366CC3366FF3399003399333399663399993399CC3399FF33CC00
310
33CC3333CC6633CC9933CCCC33CCFF33FF0033FF3333FF6633FF9933FFCC33FFFF6600006600336600666600996600CC6600FF6633006633336633666633996633CC6633FF6666006666336666666666996666CC6666FF6699006699336699666699996699CC6699FF66CC0066CC3366CC6666CC9966CCCC66CCFF66FF0066
310
FF3366FF6666FF9966FFCC66FFFF9900009900339900669900999900CC9900FF9933009933339933669933999933CC9933FF9966009966339966669966999966CC9966FF9999009999339999669999999999CC9999FF99CC0099CC3399CC6699CC9999CCCC99CCFF99FF0099FF3399FF6699FF9999FFCC99FFFFCC0000CC00
310
33CC0066CC0099CC00CCCC00FFCC3300CC3333CC3366CC3399CC33CCCC33FFCC6600CC6633CC6666CC6699CC66CCCC66FFCC9900CC9933CC9966CC9999CC99CCCC99FFCCCC00CCCC33CCCC66CCCC99CCCCCCCCCCFFCCFF00CCFF33CCFF66CCFF99CCFFCCCCFFFFFF0000FF0033FF0066FF0099FF00CCFF00FFFF3300FF3333
310
FF3366FF3399FF33CCFF33FFFF6600FF6633FF6666FF6699FF66CCFF66FFFF9900FF9933FF9966FF9999FF99CCFF99FFFFCC00FFCC33FFCC66FFCC99FFCCCCFFCCFFFFFF00FFFF33FFFF66FFFF99FFFFCCFFFFFF0000000D0D0D1A1A1A2828283535354343435050505D5D5D6B6B6B787878868686939393A1A1A1AEAEAEBB
310
BBBBC9C9C9D6D6D6E4E4E4F1F1F1FFFFFF000000000000000000000000000000000000000000000000000000000000544354A8000001B74944415478DAEDDC5D6EC3201045E1D9FFA278B91B8B5CC795EB5A060F0E81E17C8F51FCC369ABC6406B060000000000000000000000B0A7321F3BF1A3D7740578F05DB5873C7C02
310
02108000DF0C90344680B2FB9C3D8092E3C49523F05C93007D05A82BD02C40C16DCADA07705DD317207F9F047006A82820EB2880EF6652CDAF3259CB00B9DBAC08E02C20EB2980F3ABF10E20EFF85B06B82CE0FD6AA4DF6981DB1309D634C08F8B6989F50DDE135F9FFBE282AE6B020000000000000080EF4847C5EB0141D6
310
05F6F77FB2F1F3FF4BC757E204588755B63576D7204A806544653B7FDFEF52A800EBF0CB8F5A1A487102C8B140BE24881240BE1D126AB943E49301E4DF21A20801DCE35F8F8C10C0BD4B4CED364AF619603976F80035E3AFF8F10912C0347C001901660F202340E653FFCC01724F09D103C82CB7439700B10368F20096FBFB
310
F0097E0DAAEE703E07F0499087211E877B0F30F984C8F433427573826256987581F103B856C6D6B531C5591BBCFB4D20599CB5C13B8BE3DB1392855A1DB66DEAABA4C1B645E27082D10358F116913FC30F1520FFF46F27FF416EF800B7B689A513060000000000000000000000009C7A01892B531AD7F8B92A000000004945
310
4E44AE426082
  0
ENDSEC
  0
EOF
