  0
SECTION
  2
HEADER
  9
$ACADVER
  1
AC1027
  9
$ACADMAINTVER
 70
   118
  9
$DWGCODEPAGE
  3
ANSI_1252
  9
$LASTSAVEDBY
  1
tburke
  9
$REQUIREDVERSIONS
160
                 0
  9
$INSBASE
 10
0.0
 20
0.0
 30
0.0
  9
$EXTMIN
 10
-0.0000000000006025
 20
0.0
 30
0.0
  9
$EXTMAX
 10
3451.78915969497
 20
1730.783030036062
 30
0.0
  9
$LIMMIN
 10
0.0
 20
0.0
  9
$LIMMAX
 10
12.0
 20
9.0
  9
$ORTHOMODE
 70
     0
  9
$REGENMODE
 70
     1
  9
$FILLMODE
 70
     1
  9
$QTEXTMODE
 70
     0
  9
$MIRRTEXT
 70
     1
  9
$LTSCALE
 40
1.0
  9
$ATTMODE
 70
     1
  9
$TEXTSIZE
 40
0.2
  9
$TRACEWID
 40
0.05
  9
$TEXTSTYLE
  7
Standard
  9
$CLAYER
  8
Bounding Box
  9
$CELTYPE
  6
ByLayer
  9
$CECOLOR
 62
   256
  9
$CELTSCALE
 40
1.0
  9
$DISPSILH
 70
     0
  9
$DIMSCALE
 40
1.0
  9
$DIMASZ
 40
0.18
  9
$DIMEXO
 40
0.0625
  9
$DIMDLI
 40
0.38
  9
$DIMRND
 40
0.0
  9
$DIMDLE
 40
0.0
  9
$DIMEXE
 40
0.18
  9
$DIMTP
 40
0.0
  9
$DIMTM
 40
0.0
  9
$DIMTXT
 40
0.18
  9
$DIMCEN
 40
0.09
  9
$DIMTSZ
 40
0.0
  9
$DIMTOL
 70
     0
  9
$DIMLIM
 70
     0
  9
$DIMTIH
 70
     1
  9
$DIMTOH
 70
     1
  9
$DIMSE1
 70
     0
  9
$DIMSE2
 70
     0
  9
$DIMTAD
 70
     0
  9
$DIMZIN
 70
     0
  9
$DIMBLK
  1

  9
$DIMASO
 70
     1
  9
$DIMSHO
 70
     1
  9
$DIMPOST
  1

  9
$DIMAPOST
  1

  9
$DIMALT
 70
     0
  9
$DIMALTD
 70
     2
  9
$DIMALTF
 40
25.4
  9
$DIMLFAC
 40
1.0
  9
$DIMTOFL
 70
     0
  9
$DIMTVP
 40
0.0
  9
$DIMTIX
 70
     0
  9
$DIMSOXD
 70
     0
  9
$DIMSAH
 70
     0
  9
$DIMBLK1
  1

  9
$DIMBLK2
  1

  9
$DIMSTYLE
  2
Standard
  9
$DIMCLRD
 70
     0
  9
$DIMCLRE
 70
     0
  9
$DIMCLRT
 70
     0
  9
$DIMTFAC
 40
1.0
  9
$DIMGAP
 40
0.09
  9
$DIMJUST
 70
     0
  9
$DIMSD1
 70
     0
  9
$DIMSD2
 70
     0
  9
$DIMTOLJ
 70
     1
  9
$DIMTZIN
 70
     0
  9
$DIMALTZ
 70
     0
  9
$DIMALTTZ
 70
     0
  9
$DIMUPT
 70
     0
  9
$DIMDEC
 70
     4
  9
$DIMTDEC
 70
     4
  9
$DIMALTU
 70
     2
  9
$DIMALTTD
 70
     2
  9
$DIMTXSTY
  7
Standard
  9
$DIMAUNIT
 70
     0
  9
$DIMADEC
 70
     0
  9
$DIMALTRND
 40
0.0
  9
$DIMAZIN
 70
     0
  9
$DIMDSEP
 70
    46
  9
$DIMATFIT
 70
     3
  9
$DIMFRAC
 70
     0
  9
$DIMLDRBLK
  1

  9
$DIMLUNIT
 70
     2
  9
$DIMLWD
 70
    -2
  9
$DIMLWE
 70
    -2
  9
$DIMTMOVE
 70
     2
  9
$DIMFXL
 40
1.0
  9
$DIMFXLON
 70
     0
  9
$DIMJOGANG
 40
0.7853981633974483
  9
$DIMTFILL
 70
     0
  9
$DIMTFILLCLR
 70
     0
  9
$DIMARCSYM
 70
     0
  9
$DIMLTYPE
  6

  9
$DIMLTEX1
  6

  9
$DIMLTEX2
  6

  9
$DIMTXTDIRECTION
 70
     0
  9
$LUNITS
 70
     2
  9
$LUPREC
 70
     3
  9
$SKETCHINC
 40
0.1
  9
$FILLETRAD
 40
0.5
  9
$AUNITS
 70
     0
  9
$AUPREC
 70
     0
  9
$MENU
  1
.
  9
$ELEVATION
 40
0.0
  9
$PELEVATION
 40
0.0
  9
$THICKNESS
 40
0.0
  9
$LIMCHECK
 70
     0
  9
$CHAMFERA
 40
0.0
  9
$CHAMFERB
 40
0.0
  9
$CHAMFERC
 40
0.0
  9
$CHAMFERD
 40
0.0
  9
$SKPOLY
 70
     0
  9
$TDCREATE
 40
2457788.414872685
  9
$TDUCREATE
 40
2457788.414872685
  9
$TDUPDATE
 40
2457788.417036840
  9
$TDUUPDATE
 40
2457788.417036840
  9
$TDINDWG
 40
0.0006428588
  9
$TDUSRTIMER
 40
0.0006428588
  9
$USRTIMER
 70
     1
  9
$ANGBASE
 50
0.0
  9
$ANGDIR
 70
     0
  9
$PDMODE
 70
     0
  9
$PDSIZE
 40
0.0
  9
$PLINEWID
 40
0.0
  9
$SPLFRAME
 70
     0
  9
$SPLINETYPE
 70
     6
  9
$SPLINESEGS
 70
     8
  9
$HANDSEED
  5
11B
  9
$SURFTAB1
 70
     6
  9
$SURFTAB2
 70
     6
  9
$SURFTYPE
 70
     6
  9
$SURFU
 70
     6
  9
$SURFV
 70
     6
  9
$UCSBASE
  2

  9
$UCSNAME
  2

  9
$UCSORG
 10
0.0
 20
0.0
 30
0.0
  9
$UCSXDIR
 10
1.0
 20
0.0
 30
0.0
  9
$UCSYDIR
 10
0.0
 20
1.0
 30
0.0
  9
$UCSORTHOREF
  2

  9
$UCSORTHOVIEW
 70
     0
  9
$UCSORGTOP
 10
0.0
 20
0.0
 30
0.0
  9
$UCSORGBOTTOM
 10
0.0
 20
0.0
 30
0.0
  9
$UCSORGLEFT
 10
0.0
 20
0.0
 30
0.0
  9
$UCSORGRIGHT
 10
0.0
 20
0.0
 30
0.0
  9
$UCSORGFRONT
 10
0.0
 20
0.0
 30
0.0
  9
$UCSORGBACK
 10
0.0
 20
0.0
 30
0.0
  9
$PUCSBASE
  2

  9
$PUCSNAME
  2

  9
$PUCSORG
 10
0.0
 20
0.0
 30
0.0
  9
$PUCSXDIR
 10
1.0
 20
0.0
 30
0.0
  9
$PUCSYDIR
 10
0.0
 20
1.0
 30
0.0
  9
$PUCSORTHOREF
  2

  9
$PUCSORTHOVIEW
 70
     0
  9
$PUCSORGTOP
 10
0.0
 20
0.0
 30
0.0
  9
$PUCSORGBOTTOM
 10
0.0
 20
0.0
 30
0.0
  9
$PUCSORGLEFT
 10
0.0
 20
0.0
 30
0.0
  9
$PUCSORGRIGHT
 10
0.0
 20
0.0
 30
0.0
  9
$PUCSORGFRONT
 10
0.0
 20
0.0
 30
0.0
  9
$PUCSORGBACK
 10
0.0
 20
0.0
 30
0.0
  9
$USERI1
 70
     0
  9
$USERI2
 70
     0
  9
$USERI3
 70
     0
  9
$USERI4
 70
     0
  9
$USERI5
 70
     0
  9
$USERR1
 40
0.0
  9
$USERR2
 40
0.0
  9
$USERR3
 40
0.0
  9
$USERR4
 40
0.0
  9
$USERR5
 40
0.0
  9
$WORLDVIEW
 70
     1
  9
$SHADEDGE
 70
     3
  9
$SHADEDIF
 70
    70
  9
$TILEMODE
 70
     1
  9
$MAXACTVP
 70
    64
  9
$PINSBASE
 10
0.0
 20
0.0
 30
0.0
  9
$PLIMCHECK
 70
     0
  9
$PEXTMIN
 10
1.000000000000000E+20
 20
1.000000000000000E+20
 30
1.000000000000000E+20
  9
$PEXTMAX
 10
-1.000000000000000E+20
 20
-1.000000000000000E+20
 30
-1.000000000000000E+20
  9
$PLIMMIN
 10
0.0
 20
0.0
  9
$PLIMMAX
 10
12.0
 20
9.0
  9
$UNITMODE
 70
     0
  9
$VISRETAIN
 70
     1
  9
$PLINEGEN
 70
     0
  9
$PSLTSCALE
 70
     1
  9
$TREEDEPTH
 70
  3020
  9
$CMLSTYLE
  2
Standard
  9
$CMLJUST
 70
     0
  9
$CMLSCALE
 40
1.0
  9
$PROXYGRAPHICS
 70
     1
  9
$MEASUREMENT
 70
     0
  9
$CELWEIGHT
370
    -1
  9
$ENDCAPS
280
     0
  9
$JOINSTYLE
280
     0
  9
$LWDISPLAY
290
     0
  9
$INSUNITS
 70
     4
  9
$HYPERLINKBASE
  1

  9
$STYLESHEET
  1

  9
$XEDIT
290
     1
  9
$CEPSNTYPE
380
     0
  9
$PSTYLEMODE
290
     1
  9
$FINGERPRINTGUID
  2
{ECA42DDB-AF52-4435-8F04-7A90D56696ED}
  9
$VERSIONGUID
  2
{AD11B9CF-ABC1-5D4D-987C-0B89FED54707}
  9
$EXTNAMES
290
     1
  9
$PSVPSCALE
 40
0.0
  9
$OLESTARTUP
290
     0
  9
$SORTENTS
280
   127
  9
$INDEXCTL
280
     0
  9
$HIDETEXT
280
     1
  9
$XCLIPFRAME
280
     2
  9
$HALOGAP
280
     0
  9
$OBSCOLOR
 70
   257
  9
$OBSLTYPE
280
     0
  9
$INTERSECTIONDISPLAY
280
     0
  9
$INTERSECTIONCOLOR
 70
   257
  9
$DIMASSOC
280
     2
  9
$PROJECTNAME
  1

  9
$CAMERADISPLAY
290
     0
  9
$LENSLENGTH
 40
50.0
  9
$CAMERAHEIGHT
 40
0.0
  9
$STEPSPERSEC
 40
2.0
  9
$STEPSIZE
 40
6.0
  9
$3DDWFPREC
 40
2.0
  9
$PSOLWIDTH
 40
0.25
  9
$PSOLHEIGHT
 40
4.0
  9
$LOFTANG1
 40
1.570796326794896
  9
$LOFTANG2
 40
1.570796326794896
  9
$LOFTMAG1
 40
0.0
  9
$LOFTMAG2
 40
0.0
  9
$LOFTPARAM
 70
     7
  9
$LOFTNORMALS
280
     1
  9
$LATITUDE
 40
37.795
  9
$LONGITUDE
 40
-122.394
  9
$NORTHDIRECTION
 40
0.0
  9
$TIMEZONE
 70
 -8000
  9
$LIGHTGLYPHDISPLAY
280
     1
  9
$TILEMODELIGHTSYNCH
280
     1
  9
$CMATERIAL
347
44
  9
$SOLIDHIST
280
     0
  9
$SHOWHIST
280
     1
  9
$DWFFRAME
280
     2
  9
$DGNFRAME
280
     0
  9
$REALWORLDSCALE
290
     1
  9
$INTERFERECOLOR
 62
     1
  9
$INTERFEREOBJVS
345
33
  9
$INTERFEREVPVS
346
30
  9
$CSHADOW
280
     0
  9
$SHADOWPLANELOCATION
 40
0.0
  0
ENDSEC
  0
SECTION
  2
CLASSES
  0
CLASS
  1
ACDBDICTIONARYWDFLT
  2
AcDbDictionaryWithDefault
  3
ObjectDBX Classes
 90
        0
 91
        1
280
     0
281
     0
  0
CLASS
  1
VISUALSTYLE
  2
AcDbVisualStyle
  3
ObjectDBX Classes
 90
     4095
 91
       24
280
     0
281
     0
  0
CLASS
  1
MATERIAL
  2
AcDbMaterial
  3
ObjectDBX Classes
 90
     1153
 91
        3
280
     0
281
     0
  0
CLASS
  1
SCALE
  2
AcDbScale
  3
ObjectDBX Classes
 90
     1153
 91
       33
280
     0
281
     0
  0
CLASS
  1
TABLESTYLE
  2
AcDbTableStyle
  3
ObjectDBX Classes
 90
     4095
 91
        1
280
     0
281
     0
  0
CLASS
  1
MLEADERSTYLE
  2
AcDbMLeaderStyle
  3
ACDB_MLEADERSTYLE_CLASS
 90
     4095
 91
        1
280
     0
281
     0
  0
CLASS
  1
SUN
  2
AcDbSun
  3
SCENEOE
 90
     1153
 91
        1
280
     0
281
     0
  0
CLASS
  1
DICTIONARYVAR
  2
AcDbDictionaryVar
  3
ObjectDBX Classes
 90
        0
 91
        9
280
     0
281
     0
  0
CLASS
  1
CELLSTYLEMAP
  2
AcDbCellStyleMap
  3
ObjectDBX Classes
 90
     1152
 91
        1
280
     0
281
     0
  0
CLASS
  1
ACDBSECTIONVIEWSTYLE
  2
AcDbSectionViewStyle
  3
ObjectDBX Classes
 90
     1025
 91
        1
280
     0
281
     0
  0
CLASS
  1
ACDBDETAILVIEWSTYLE
  2
AcDbDetailViewStyle
  3
ObjectDBX Classes
 90
     1025
 91
        1
280
     0
281
     0
  0
ENDSEC
  0
SECTION
  2
TABLES
  0
TABLE
  2
VPORT
  5
8
102
{ACAD_XDICTIONARY
360
A3
102
}
330
0
100
AcDbSymbolTable
 70
     1
  0
VPORT
  5
29
330
8
100
AcDbSymbolTableRecord
100
AcDbViewportTableRecord
  2
*Active
 70
     0
 10
0.0
 20
0.0
 11
1.0
 21
1.0
 12
1677.658492722071
 22
807.2992641504026
 13
0.0
 23
0.0
 14
0.5
 24
0.5
 15
0.5
 25
0.5
 16
0.0
 26
0.0
 36
1.0
 17
0.0
 27
0.0
 37
0.0
 40
2643.9672335226
 41
1.74921875
 42
50.0
 43
0.0
 44
0.0
 50
0.0
 51
0.0
 71
     0
 72
   100
 73
     1
 74
     3
 75
     0
 76
     0
 77
     0
 78
     0
281
     0
 65
     1
110
0.0
120
0.0
130
0.0
111
1.0
121
0.0
131
0.0
112
0.0
122
1.0
132
0.0
 79
     0
146
0.0
348
2F
 60
     3
 61
     5
292
     1
282
     1
141
0.0
142
0.0
 63
   250
421
  3355443
361
6D
1001
ACAD_NAV_VCDISPLAY
1070
     3
  0
ENDTAB
  0
TABLE
  2
LTYPE
  5
5
330
0
100
AcDbSymbolTable
 70
     1
  0
LTYPE
  5
14
330
5
100
AcDbSymbolTableRecord
100
AcDbLinetypeTableRecord
  2
ByBlock
 70
     0
  3

 72
    65
 73
     0
 40
0.0
  0
LTYPE
  5
15
330
5
100
AcDbSymbolTableRecord
100
AcDbLinetypeTableRecord
  2
ByLayer
 70
     0
  3

 72
    65
 73
     0
 40
0.0
  0
LTYPE
  5
16
330
5
100
AcDbSymbolTableRecord
100
AcDbLinetypeTableRecord
  2
Continuous
 70
     0
  3
Solid line
 72
    65
 73
     0
 40
0.0
  0
ENDTAB
  0
TABLE
  2
LAYER
  5
2
102
{ACAD_XDICTIONARY
360
FB
102
}
330
0
100
AcDbSymbolTable
 70
     3
  0
LAYER
  5
10
102
{ACAD_XDICTIONARY
360
F2
102
}
330
2
100
AcDbSymbolTableRecord
100
AcDbLayerTableRecord
  2
0
 70
     0
 62
     7
  6
Continuous
370
    -3
390
F
347
46
348
0
  0
LAYER
  5
6E
102
{ACAD_XDICTIONARY
360
F4
102
}
330
2
100
AcDbSymbolTableRecord
100
AcDbLayerTableRecord
  2
Bounding Box
 70
     0
 62
     1
  6
Continuous
370
    -3
390
F
347
46
348
0
  0
LAYER
  5
81
102
{ACAD_XDICTIONARY
360
F6
102
}
330
2
100
AcDbSymbolTableRecord
100
AcDbLayerTableRecord
  2
Default
 70
     0
 62
     6
  6
Continuous
370
    -3
390
F
347
46
348
0
  0
ENDTAB
  0
TABLE
  2
STYLE
  5
3
330
0
100
AcDbSymbolTable
 70
     1
  0
STYLE
  5
11
330
3
100
AcDbSymbolTableRecord
100
AcDbTextStyleTableRecord
  2
Standard
 70
     0
 40
0.0
 41
1.0
 50
0.0
 71
     0
 42
0.2
  3
txt
  4

  0
ENDTAB
  0
TABLE
  2
VIEW
  5
6
330
0
100
AcDbSymbolTable
 70
     1
  0
ENDTAB
  0
TABLE
  2
UCS
  5
7
330
0
100
AcDbSymbolTable
 70
     0
  0
ENDTAB
  0
TABLE
  2
APPID
  5
9
330
0
100
AcDbSymbolTable
 70
     3
  0
APPID
  5
12
330
9
100
AcDbSymbolTableRecord
100
AcDbRegAppTableRecord
  2
ACAD
 70
     0
  0
APPID
  5
E2
330
9
100
AcDbSymbolTableRecord
100
AcDbRegAppTableRecord
  2
ACAD_MLEADERVER
 70
     0
  0
APPID
  5
101
330
9
100
AcDbSymbolTableRecord
100
AcDbRegAppTableRecord
  2
ACAD_NAV_VCDISPLAY
 70
     0
  0
ENDTAB
  0
TABLE
  2
DIMSTYLE
  5
A
330
0
100
AcDbSymbolTable
 70
     1
100
AcDbDimStyleTable
 71
     0
  0
DIMSTYLE
105
27
330
A
100
AcDbSymbolTableRecord
100
AcDbDimStyleTableRecord
  2
Standard
 70
     0
340
11
  0
ENDTAB
  0
TABLE
  2
BLOCK_RECORD
  5
1
330
0
100
AcDbSymbolTable
 70
     1
  0
BLOCK_RECORD
  5
1F
330
1
100
AcDbSymbolTableRecord
100
AcDbBlockTableRecord
  2
*Model_Space
340
22
 70
     0
280
     1
281
     0
  0
BLOCK_RECORD
  5
1B
330
1
100
AcDbSymbolTableRecord
100
AcDbBlockTableRecord
  2
*Paper_Space
340
1E
 70
     0
280
     1
281
     0
  0
BLOCK_RECORD
  5
23
330
1
100
AcDbSymbolTableRecord
100
AcDbBlockTableRecord
  2
*Paper_Space0
340
26
 70
     0
280
     1
281
     0
  0
ENDTAB
  0
ENDSEC
  0
SECTION
  2
BLOCKS
  0
BLOCK
  5
20
330
1F
100
AcDbEntity
  8
0
100
AcDbBlockBegin
  2
*Model_Space
 70
     0
 10
0.0
 20
0.0
 30
0.0
  3
*Model_Space
  1

  0
ENDBLK
  5
21
330
1F
100
AcDbEntity
  8
0
100
AcDbBlockEnd
  0
BLOCK
  5
1C
330
1B
100
AcDbEntity
 67
     1
  8
0
100
AcDbBlockBegin
  2
*Paper_Space
 70
     0
 10
0.0
 20
0.0
 30
0.0
  3
*Paper_Space
  1

  0
ENDBLK
  5
1D
330
1B
100
AcDbEntity
 67
     1
  8
0
100
AcDbBlockEnd
  0
BLOCK
  5
24
330
23
100
AcDbEntity
 67
     1
  8
0
100
AcDbBlockBegin
  2
*Paper_Space0
 70
     0
 10
0.0
 20
0.0
 30
0.0
  3
*Paper_Space0
  1

  0
ENDBLK
  5
25
330
23
100
AcDbEntity
 67
     1
  8
0
100
AcDbBlockEnd
  0
ENDSEC
  0
SECTION
  2
ENTITIES
  0
POLYLINE
  5
6F
330
1F
100
AcDbEntity
  8
Bounding Box
100
AcDb2dPolyline
 66
     1
 10
0.0
 20
0.0
 30
0.0
 70
     1
  0
VERTEX
  5
70
330
6F
100
AcDbEntity
  8
Bounding Box
100
AcDbVertex
100
AcDb2dVertex
 10
1951.785835689818
 20
0.0
 30
0.0
  0
VERTEX
  5
71
330
6F
100
AcDbEntity
  8
Bounding Box
100
AcDbVertex
100
AcDb2dVertex
 10
1951.785835689818
 20
731.0000000000009
 30
0.0
  0
VERTEX
  5
72
330
6F
100
AcDbEntity
  8
Bounding Box
100
AcDbVertex
100
AcDb2dVertex
 10
3451.78915969497
 20
731.0000000000009
 30
0.0
  0
VERTEX
  5
73
330
6F
100
AcDbEntity
  8
Bounding Box
100
AcDbVertex
100
AcDb2dVertex
 10
3451.78915969497
 20
0.0
 30
0.0
  0
SEQEND
  5
74
330
6F
100
AcDbEntity
  8
Bounding Box
  0
POLYLINE
  5
75
330
1F
100
AcDbEntity
  8
Bounding Box
100
AcDb2dPolyline
 66
     1
 10
0.0
 20
0.0
 30
0.0
 70
     1
  0
VERTEX
  5
76
330
75
100
AcDbEntity
  8
Bounding Box
100
AcDbVertex
100
AcDb2dVertex
 10
1951.785972389947
 20
1182.782845776175
 30
0.0
  0
VERTEX
  5
77
330
75
100
AcDbEntity
  8
Bounding Box
100
AcDbVertex
100
AcDb2dVertex
 10
3451.789099003707
 20
1182.782845776175
 30
0.0
  0
VERTEX
  5
78
330
75
100
AcDbEntity
  8
Bounding Box
100
AcDbVertex
100
AcDb2dVertex
 10
3451.789099003707
 20
1730.783030036062
 30
0.0
  0
VERTEX
  5
79
330
75
100
AcDbEntity
  8
Bounding Box
100
AcDbVertex
100
AcDb2dVertex
 10
1951.785972389947
 20
1730.783030036062
 30
0.0
  0
SEQEND
  5
7A
330
75
100
AcDbEntity
  8
Bounding Box
  0
POLYLINE
  5
7B
330
1F
100
AcDbEntity
  8
Bounding Box
100
AcDb2dPolyline
 66
     1
 10
0.0
 20
0.0
 30
0.0
 70
     1
  0
VERTEX
  5
7C
330
7B
100
AcDbEntity
  8
Bounding Box
100
AcDbVertex
100
AcDb2dVertex
 10
-0.0000000000006025
 20
1182.782845776175
 30
0.0
  0
VERTEX
  5
7D
330
7B
100
AcDbEntity
  8
Bounding Box
100
AcDbVertex
100
AcDb2dVertex
 10
731.0000000000002
 20
1182.782845776175
 30
0.0
  0
VERTEX
  5
7E
330
7B
100
AcDbEntity
  8
Bounding Box
100
AcDbVertex
100
AcDb2dVertex
 10
731.0000000000002
 20
1730.782845611759
 30
0.0
  0
VERTEX
  5
7F
330
7B
100
AcDbEntity
  8
Bounding Box
100
AcDbVertex
100
AcDb2dVertex
 10
-0.0000000000006025
 20
1730.782845611759
 30
0.0
  0
SEQEND
  5
80
330
7B
100
AcDbEntity
  8
Bounding Box
  0
SPLINE
  5
82
330
1F
100
AcDbEntity
  8
Default
100
AcDbSpline
210
0.0
220
0.0
230
1.0
 70
    12
 71
     3
 72
   413
 73
   409
 74
     0
 42
0.000000001
 43
0.0000000001
 40
0.0000013479071499
 40
0.0000013479071499
 40
0.0000013479071499
 40
0.0000013479071499
 40
1.0
 40
1.0
 40
1.0
 40
2.0
 40
2.0
 40
2.0
 40
61.09925875124417
 40
61.09925875124417
 40
61.09925875124417
 40
120.1982100071458
 40
120.1982100071458
 40
120.1982100071458
 40
169.4465177708281
 40
169.4465177708281
 40
169.4465177708281
 40
208.8430372380559
 40
208.8430372380559
 40
208.8430372380559
 40
238.3899400982598
 40
238.3899400982598
 40
238.3899400982598
 40
267.9341011878726
 40
267.9341011878726
 40
267.9341011878726
 40
292.5500113635134
 40
292.5500113635134
 40
292.5500113635134
 40
312.2358898297808
 40
312.2358898297808
 40
312.2358898297808
 40
326.9948673864704
 40
326.9948673864704
 40
326.9948673864704
 40
341.7498761855326
 40
341.7498761855326
 40
341.7498761855326
 40
356.4961321060316
 40
356.4961321060316
 40
356.4961321060316
 40
371.2227545032726
 40
371.2227545032726
 40
371.2227545032726
 40
383.4842900831523
 40
383.4842900831523
 40
383.4842900831523
 40
393.2927047779842
 40
393.2927047779842
 40
393.2927047779842
 40
400.6543208016227
 40
400.6543208016227
 40
400.6543208016227
 40
408.010155859243
 40
408.010155859243
 40
408.010155859243
 40
415.354901038038
 40
415.354901038038
 40
415.354901038038
 40
422.6943441005627
 40
422.6943441005627
 40
422.6943441005627
 40
430.0344390096841
 40
430.0344390096841
 40
430.0344390096841
 40
437.378444981451
 40
437.378444981451
 40
437.378444981451
 40
444.7264741403712
 40
444.7264741403712
 40
444.7264741403712
 40
452.081756876198
 40
452.081756876198
 40
452.081756876198
 40
459.4435779500861
 40
459.4435779500861
 40
459.4435779500861
 40
466.7967971346885
 40
466.7967971346885
 40
466.7967971346885
 40
476.5890209048349
 40
476.5890209048349
 40
476.5890209048349
 40
488.8197597825812
 40
488.8197597825812
 40
488.8197597825812
 40
501.0540472711292
 40
501.0540472711292
 40
501.0540472711292
 40
510.8575097376666
 40
510.8575097376666
 40
510.8575097376666
 40
518.213464247516
 40
518.213464247516
 40
518.213464247516
 40
525.5581249214958
 40
525.5581249214958
 40
525.5581249214958
 40
532.8964886682687
 40
532.8964886682687
 40
532.8964886682687
 40
539.0114250051803
 40
539.0114250051803
 40
539.0114250051803
 40
543.9060337532785
 40
543.9060337532785
 40
543.9060337532785
 40
547.581130517285
 40
547.581130517285
 40
547.581130517285
 40
551.2568511543521
 40
551.2568511543521
 40
551.2568511543521
 40
556.1418001348191
 40
556.1418001348191
 40
556.1418001348191
 40
562.2251553712455
 40
562.2251553712455
 40
562.2251553712455
 40
569.4982523354885
 40
569.4982523354885
 40
569.4982523354885
 40
579.1657193856167
 40
579.1657193856167
 40
579.1657193856167
 40
591.2315953465067
 40
591.2315953465067
 40
591.2315953465067
 40
603.3125265743148
 40
603.3125265743148
 40
603.3125265743148
 40
613.0110166831777
 40
613.0110166831777
 40
613.0110166831777
 40
619.0954844816925
 40
619.0954844816925
 40
619.0954844816925
 40
623.9782506826664
 40
623.9782506826664
 40
623.9782506826664
 40
627.6501919353588
 40
627.6501919353588
 40
627.6501919353588
 40
631.3232664635655
 40
631.3232664635655
 40
631.3232664635655
 40
636.2166640750226
 40
636.2166640750226
 40
636.2166640750226
 40
642.3292988090476
 40
642.3292988090476
 40
642.3292988090476
 40
649.661049772391
 40
649.661049772391
 40
649.661049772391
 40
656.9930408332781
 40
656.9930408332781
 40
656.9930408332781
 40
664.3292987716623
 40
664.3292987716623
 40
664.3292987716623
 40
671.673599818545
 40
671.673599818545
 40
671.673599818545
 40
681.4757527329845
 40
681.4757527329845
 40
681.4757527329845
 40
691.2710108556129
 40
691.2710108556129
 40
691.2710108556129
 40
701.0673375542359
 40
701.0673375542359
 40
701.0673375542359
 40
708.419478761456
 40
708.419478761456
 40
708.419478761456
 40
715.7736514388338
 40
715.7736514388338
 40
715.7736514388338
 40
725.5749309829645
 40
725.5749309829645
 40
725.5749309829645
 40
737.8281875378112
 40
737.8281875378112
 40
737.8281875378112
 40
752.540992397388
 40
752.540992397388
 40
752.540992397388
 40
764.7985947629504
 40
764.7985947629504
 40
764.7985947629504
 40
774.6064901549271
 40
774.6064901549271
 40
774.6064901549271
 40
784.4179113404213
 40
784.4179113404213
 40
784.4179113404213
 40
796.6731737838409
 40
796.6731737838409
 40
796.6731737838409
 40
811.3721612991984
 40
811.3721612991984
 40
811.3721612991984
 40
826.0713916437499
 40
826.0713916437499
 40
826.0713916437499
 40
840.7768318281741
 40
840.7768318281741
 40
840.7768318281741
 40
855.49286027743
 40
855.49286027743
 40
855.49286027743
 40
867.752998941164
 40
867.752998941164
 40
867.752998941164
 40
877.5600038372303
 40
877.5600038372303
 40
877.5600038372303
 40
884.9170187765853
 40
884.9170187765853
 40
884.9170187765853
 40
892.2698777874634
 40
892.2698777874634
 40
892.2698777874634
 40
902.062034771704
 40
902.062034771704
 40
902.062034771704
 40
914.2893016320314
 40
914.2893016320314
 40
914.2893016320314
 40
928.9548412582117
 40
928.9548412582117
 40
928.9548412582117
 40
941.1824381728125
 40
941.1824381728125
 40
941.1824381728125
 40
950.9775143601343
 40
950.9775143601343
 40
950.9775143601343
 40
958.3331941314044
 40
958.3331941314044
 40
958.3331941314044
 40
965.6838196314767
 40
965.6838196314767
 40
965.6838196314767
 40
973.0302236330656
 40
973.0302236330656
 40
973.0302236330656
 40
980.3757758241388
 40
980.3757758241388
 40
980.3757758241388
 40
987.7241189174016
 40
987.7241189174016
 40
987.7241189174016
 40
995.0775540249097
 40
995.0775540249097
 40
995.0775540249097
 40
1002.42480707031
 40
1002.42480707031
 40
1002.42480707031
 40
1009.766154423884
 40
1009.766154423884
 40
1009.766154423884
 40
1017.105361681138
 40
1017.105361681138
 40
1017.105361681138
 40
1024.446626592211
 40
1024.446626592211
 40
1024.446626592211
 40
1031.794847266579
 40
1031.794847266579
 40
1031.794847266579
 40
1039.134568916975
 40
1039.134568916975
 40
1039.134568916975
 40
1046.463111556824
 40
1046.463111556824
 40
1046.463111556824
 40
1053.787592270496
 40
1053.787592270496
 40
1053.787592270496
 40
1059.893907719112
 40
1059.893907719112
 40
1059.893907719112
 40
1064.783974615821
 40
1064.783974615821
 40
1064.783974615821
 40
1069.680184106237
 40
1069.680184106237
 40
1069.680184106237
 40
1075.792363578642
 40
1075.792363578642
 40
1075.792363578642
 40
1083.114680424907
 40
1083.114680424907
 40
1083.114680424907
 40
1090.432176907639
 40
1090.432176907639
 40
1090.432176907639
 40
1096.532981372648
 40
1096.532981372648
 40
1096.532981372648
 40
1101.419164137742
 40
1101.419164137742
 40
1101.419164137742
 40
1105.088847737201
 40
1105.088847737201
 40
1105.088847737201
 40
1108.758055616337
 40
1108.758055616337
 40
1108.758055616337
 40
1113.636732763435
 40
1113.636732763435
 40
1113.636732763435
 40
1119.717560760081
 40
1119.717560760081
 40
1119.717560760081
 40
1126.994839741054
 40
1126.994839741054
 40
1126.994839741054
 40
1136.676334765307
 40
1136.676334765307
 40
1136.676334765307
 40
1148.762095221114
 40
1148.762095221114
 40
1148.762095221114
 40
1163.268127712593
 40
1163.268127712593
 40
1163.268127712593
 40
1175.377617582744
 40
1175.377617582744
 40
1175.377617582744
 40
1185.089075342137
 40
1185.089075342137
 40
1185.089075342137
 40
1191.172802381273
 40
1191.172802381273
 40
1191.172802381273
 40
1196.048748296053
 40
1196.048748296053
 40
1196.048748296053
 40
1200.932666896695
 40
1200.932666896695
 40
1200.932666896695
 40
1207.034552837585
 40
1207.034552837585
 40
1207.034552837585
 40
1214.34890595647
 40
1214.34890595647
 40
1214.34890595647
 40
1221.657451922722
 40
1221.657451922722
 40
1221.657451922722
 40
1228.959655269169
 40
1228.959655269169
 40
1228.959655269169
 40
1238.694229907655
 40
1238.694229907655
 40
1238.694229907655
 40
1248.43906005276
 40
1248.43906005276
 40
1248.43906005276
 40
1258.206015314506
 40
1258.206015314506
 40
1258.206015314506
 40
1267.975686905759
 40
1267.975686905759
 40
1267.975686905759
 40
1280.189875587937
 40
1280.189875587937
 40
1280.189875587937
 40
1294.860861936511
 40
1294.860861936511
 40
1294.860861936511
 40
1309.546211792692
 40
1309.546211792692
 40
1309.546211792692
 40
1329.134690931723
 40
1329.134690931723
 40
1329.134690931723
 40
1353.634649619878
 40
1353.634649619878
 40
1353.634649619878
 40
1383.044674122537
 40
1383.044674122537
 40
1383.044674122537
 40
1412.461053115295
 40
1412.461053115295
 40
1412.461053115295
 40
1441.880112942434
 40
1441.880112942434
 40
1441.880112942434
 40
1481.107631823092
 40
1481.107631823092
 40
1481.107631823092
 40
1530.143760454063
 40
1530.143760454063
 40
1530.143760454063
 40
1588.987743781841
 40
1588.987743781841
 40
1588.987743781841
 40
1647.831442782783
 40
1647.831442782783
 40
1647.831442782783
 40
1648.831442782783
 40
1648.831442782783
 40
1648.831442782783
 40
1649.831441423969
 40
1649.831441423969
 40
1649.831441423969
 40
1649.831441423969
 10
15.58185338074293
 20
1730.565141572837
 30
0.0
 41
1.0
 10
15.69777382462629
 20
1730.565186281637
 30
0.0
 41
1.0
 10
15.81369426850953
 20
1730.565230990437
 30
0.0
 41
1.0
 10
15.929614712393
 20
1730.565275699237
 30
0.0
 41
1.0
 10
16.2795234332375
 20
1730.565433943088
 30
0.0
 41
1.0
 10
16.62943215408177
 20
1730.565592186938
 30
0.0
 41
1.0
 10
16.97934087492626
 20
1730.565750430789
 30
0.0
 41
1.0
 10
17.41424288610926
 20
1730.565824676628
 30
0.0
 41
1.0
 10
17.94873031254974
 20
1730.565880890816
 30
0.0
 41
1.0
 10
18.57958811880076
 20
1730.565888358726
 30
0.0
 41
1.0
 10
19.21045605368965
 20
1730.565895826756
 30
0.0
 41
1.0
 10
19.93775180997613
 20
1730.565854542935
 30
0.0
 41
1.0
 10
20.76417806246127
 20
1730.565739608405
 30
0.0
 41
1.0
 10
21.45286576224737
 20
1730.565643829746
 30
0.0
 41
1.0
 10
22.21043574683733
 20
1730.56549690135
 30
0.0
 41
1.0
 10
23.04326085636353
 20
1730.56528715252
 30
0.0
 41
1.0
 10
23.70949113025154
 20
1730.565119360965
 30
0.0
 41
1.0
 10
24.42385853770066
 20
1730.564911373535
 30
0.0
 41
1.0
 10
25.1939291845697
 20
1730.564677480962
 30
0.0
 41
1.0
 10
25.77147626381725
 20
1730.564502063326
 30
0.0
 41
1.0
 10
26.38037544578196
 20
1730.564312068575
 30
0.0
 41
1.0
 10
27.02631932547195
 20
1730.564114249031
 30
0.0
 41
1.0
 10
27.67219680053404
 20
1730.563916449824
 30
0.0
 41
1.0
 10
28.35485002440055
 20
1730.563710918304
 30
0.0
 41
1.0
 10
29.08544990571875
 20
1730.563599149711
 30
0.0
 41
1.0
 10
29.6941626339758
 20
1730.563506027652
 30
0.0
 41
1.0
 10
30.33601971433916
 20
1730.563477991223
 30
0.0
 41
1.0
 10
31.0265042099245
 20
1730.563628510381
 30
0.0
 41
1.0
 10
31.57867242238501
 20
1730.563748877884
 30
0.0
 41
1.0
 10
32.16193746736667
 20
1730.563983423147
 30
0.0
 41
1.0
 10
32.7885662962542
 20
1730.564408509372
 30
0.0
 41
1.0
 10
33.25834507928675
 20
1730.564727193224
 30
0.0
 41
1.0
 10
33.75246680286262
 20
1730.5651529605
 30
0.0
 41
1.0
 10
34.27816302128713
 20
1730.565737888953
 30
0.0
 41
1.0
 10
34.80369485173287
 20
1730.566322634495
 30
0.0
 41
1.0
 10
35.36080716177389
 20
1730.567066458564
 30
0.0
 41
1.0
 10
35.95924440061572
 20
1730.568039614135
 30
0.0
 41
1.0
 10
36.55725943217044
 20
1730.569012083129
 30
0.0
 41
1.0
 10
37.19678879863455
 20
1730.570213939884
 30
0.0
 41
1.0
 10
37.8905573586851
 20
1730.571731216196
 30
0.0
 41
1.0
 10
38.58349985947894
 20
1730.573246685912
 30
0.0
 41
1.0
 10
39.3307980179801
 20
1730.575077389439
 30
0.0
 41
1.0
 10
40.14977022552693
 20
1730.577298650343
 30
0.0
 41
1.0
 10
40.83162396521015
 20
1730.579148011091
 30
0.0
 41
1.0
 10
41.56320279803185
 20
1730.581268239836
 30
0.0
 41
1.0
 10
42.35607623834789
 20
1730.583660051444
 30
0.0
 41
1.0
 10
42.99041550212939
 20
1730.585573622938
 30
0.0
 41
1.0
 10
43.66377254223903
 20
1730.587660352165
 30
0.0
 41
1.0
 10
44.38261053226097
 20
1730.58988148056
 30
0.0
 41
1.0
 10
44.92193387008501
 20
1730.591547928907
 30
0.0
 41
1.0
 10
45.48702450482084
 20
1730.593290550189
 30
0.0
 41
1.0
 10
46.07924773568686
 20
1730.595072833616
 30
0.0
 41
1.0
 10
46.67106776008949
 20
1730.596853903602
 30
0.0
 41
1.0
 10
47.29051205338987
 20
1730.598676207619
 30
0.0
 41
1.0
 10
47.93849770030965
 20
1730.600490814572
 30
0.0
 41
1.0
 10
48.58561799758445
 20
1730.602302998217
 30
0.0
 41
1.0
 10
49.26121098023713
 20
1730.604107527069
 30
0.0
 41
1.0
 10
49.9657167098685
 20
1730.605846076157
 30
0.0
 41
1.0
 10
50.66969454392074
 20
1730.607583322527
 30
0.0
 41
1.0
 10
51.40218831063362
 20
1730.609253788383
 30
0.0
 41
1.0
 10
52.16230117007319
 20
1730.610806264388
 30
0.0
 41
1.0
 10
52.92246348235926
 20
1730.612358841397
 30
0.0
 41
1.0
 10
53.71007549892806
 20
1730.613793032299
 30
0.0
 41
1.0
 10
54.52217780862111
 20
1730.615034547962
 30
0.0
 41
1.0
 10
55.33469656790555
 20
1730.616276700279
 30
0.0
 41
1.0
 10
56.17104972301558
 20
1730.617325108613
 30
0.0
 41
1.0
 10
57.02963924773962
 20
1730.618371942433
 30
0.0
 41
1.0
 10
57.88873921116783
 20
1730.619419398604
 30
0.0
 41
1.0
 10
58.77037491917599
 20
1730.620465487261
 30
0.0
 41
1.0
 10
59.67491399168648
 20
1730.621509366953
 30
0.0
 41
1.0
 10
60.58034447105058
 20
1730.622554275369
 30
0.0
 41
1.0
 10
61.50841507982182
 20
1730.623596625148
 30
0.0
 41
1.0
 10
62.45928333792926
 20
1730.624655046167
 30
0.0
 41
1.0
 10
63.41067757862788
 20
1730.625714052662
 30
0.0
 41
1.0
 10
64.38558509246445
 20
1730.626789904447
 30
0.0
 41
1.0
 10
65.38240636120008
 20
1730.62789203749
 30
0.0
 41
1.0
 10
66.37841551940823
 20
1730.628993272626
 30
0.0
 41
1.0
 10
67.39695051119736
 20
1730.630121454297
 30
0.0
 41
1.0
 10
68.43856602731012
 20
1730.631288659513
 30
0.0
 41
1.0
 10
69.82562481911327
 20
1730.632842958803
 30
0.0
 41
1.0
 10
71.25304058033965
 20
1730.634465820216
 30
0.0
 41
1.0
 10
72.72191087445071
 20
1730.636181660902
 30
0.0
 41
1.0
 10
74.5565838124802
 20
1730.638324808929
 30
0.0
 41
1.0
 10
76.45516837100547
 20
1730.640612132257
 30
0.0
 41
1.0
 10
78.42068241373908
 20
1730.643084644465
 30
0.0
 41
1.0
 10
80.38700169372418
 20
1730.645558169619
 30
0.0
 41
1.0
 10
82.41856346975533
 20
1730.648214859182
 30
0.0
 41
1.0
 10
84.52109824314447
 20
1730.651088922023
 30
0.0
 41
1.0
 10
86.20539942554206
 20
1730.653391279874
 30
0.0
 41
1.0
 10
87.93477611169192
 20
1730.655832483107
 30
0.0
 41
1.0
 10
89.71052454788594
 20
1730.658420873289
 30
0.0
 41
1.0
 10
91.0427278409004
 20
1730.660362737268
 30
0.0
 41
1.0
 10
92.402281796024
 20
1730.662389268072
 30
0.0
 41
1.0
 10
93.78811941027311
 20
1730.664498092511
 30
0.0
 41
1.0
 10
95.17233960466455
 20
1730.666604455728
 30
0.0
 41
1.0
 10
96.58333104307372
 20
1730.668793756958
 30
0.0
 41
1.0
 10
98.02324627771282
 20
1730.671065351296
 30
0.0
 41
1.0
 10
99.46181732517107
 20
1730.673334825061
 30
0.0
 41
1.0
 10
100.928505881455
 20
1730.675685249059
 30
0.0
 41
1.0
 10
102.4251037051906
 20
1730.678107139144
 30
0.0
 41
1.0
 10
103.6721850293229
 20
1730.680125245709
 30
0.0
 41
1.0
 10
104.9396949594677
 20
1730.682192420359
 30
0.0
 41
1.0
 10
106.2287683753609
 20
1730.684305177882
 30
0.0
 41
1.0
 10
107.2606576746605
 20
1730.685996417381
 30
0.0
 41
1.0
 10
108.3059410994574
 20
1730.687716170249
 30
0.0
 41
1.0
 10
109.3657679383325
 20
1730.689449787992
 30
0.0
 41
1.0
 10
110.1615155479101
 20
1730.690751436643
 30
0.0
 41
1.0
 10
110.9653242477206
 20
1730.69206065894
 30
0.0
 41
1.0
 10
111.7769108015457
 20
1730.693346505952
 30
0.0
 41
1.0
 10
112.5886515732945
 20
1730.694632597301
 30
0.0
 41
1.0
 10
113.4085412783945
 20
1730.695895951897
 30
0.0
 41
1.0
 10
114.2362551765038
 20
1730.697141805866
 30
0.0
 41
1.0
 10
115.3363690350231
 20
1730.698797669346
 30
0.0
 41
1.0
 10
116.4498899102641
 20
1730.700421938285
 30
0.0
 41
1.0
 10
117.5776307346189
 20
1730.702010569771
 30
0.0
 41
1.0
 10
118.9818389833367
 20
1730.703988656748
 30
0.0
 41
1.0
 10
120.4071421066976
 20
1730.705910137693
 30
0.0
 41
1.0
 10
121.8532797934399
 20
1730.707773335425
 30
0.0
 41
1.0
 10
123.5823826738039
 20
1730.710001104326
 30
0.0
 41
1.0
 10
125.3404403048987
 20
1730.712144483608
 30
0.0
 41
1.0
 10
127.1276613610223
 20
1730.7142008169
 30
0.0
 41
1.0
 10
129.5033028544883
 20
1730.716934172505
 30
0.0
 41
1.0
 10
131.9279754350627
 20
1730.719510854217
 30
0.0
 41
1.0
 10
134.4012335575089
 20
1730.72193363585
 30
0.0
 41
1.0
 10
137.4882524134198
 20
1730.724957652032
 30
0.0
 41
1.0
 10
140.6462604344929
 20
1730.727737331312
 30
0.0
 41
1.0
 10
143.873357409717
 20
1730.730297203668
 30
0.0
 41
1.0
 10
147.104348288909
 20
1730.732860164836
 30
0.0
 41
1.0
 10
150.3998072730824
 20
1730.735199053178
 30
0.0
 41
1.0
 10
153.7560701011255
 20
1730.737355727386
 30
0.0
 41
1.0
 10
156.4503613059075
 20
1730.739087030519
 30
0.0
 41
1.0
 10
159.1814843870427
 20
1730.740699397642
 30
0.0
 41
1.0
 10
161.9471707485097
 20
1730.742219242744
 30
0.0
 41
1.0
 10
163.6821285507046
 20
1730.743172665068
 30
0.0
 41
1.0
 10
165.4303336308703
 20
1730.744089467281
 30
0.0
 41
1.0
 10
167.1906852718689
 20
1730.744976198953
 30
0.0
 41
1.0
 10
168.6035189760193
 20
1730.745687877439
 30
0.0
 41
1.0
 10
170.0237971892723
 20
1730.746379992264
 30
0.0
 41
1.0
 10
171.4518001073811
 20
1730.747056313511
 30
0.0
 41
1.0
 10
172.5257248843989
 20
1730.747564938623
 30
0.0
 41
1.0
 10
173.6037270055824
 20
1730.748064501127
 30
0.0
 41
1.0
 10
174.6853752806567
 20
1730.748556278891
 30
0.0
 41
1.0
 10
175.767494921685
 20
1730.749048270965
 30
0.0
 41
1.0
 10
176.8536682475353
 20
1730.749532646416
 30
0.0
 41
1.0
 10
177.9434787551538
 20
1730.75001080275
 30
0.0
 41
1.0
 10
179.3952049191775
 20
1730.750647750233
 30
0.0
 41
1.0
 10
180.8538103663997
 20
1730.75127384087
 30
0.0
 41
1.0
 10
182.3183421736967
 20
1730.751890873566
 30
0.0
 41
1.0
 10
184.1477841921585
 20
1730.752661649274
 30
0.0
 41
1.0
 10
185.9866133927128
 20
1730.753418339348
 30
0.0
 41
1.0
 10
187.8341726819001
 20
1730.754174535831
 30
0.0
 41
1.0
 10
190.0502986195613
 20
1730.755081584742
 30
0.0
 41
1.0
 10
192.2785108815608
 20
1730.755987755371
 30
0.0
 41
1.0
 10
194.5187536323076
 20
1730.756887077006
 30
0.0
 41
1.0
 10
196.7590373990974
 20
1730.757786415106
 30
0.0
 41
1.0
 10
199.0106927011363
 20
1730.758678638372
 30
0.0
 41
1.0
 10
201.2733970408967
 20
1730.75955761837
 30
0.0
 41
1.0
 10
203.5374374970108
 20
1730.7604371174
 30
0.0
 41
1.0
 10
205.8119401495487
 20
1730.761303122658
 30
0.0
 41
1.0
 10
208.0967146658099
 20
1730.762150913863
 30
0.0
 41
1.0
 10
210.3839166214586
 20
1730.762999605797
 30
0.0
 41
1.0
 10
212.6810064390331
 20
1730.763829893833
 30
0.0
 41
1.0
 10
214.9873378242835
 20
1730.764637709001
 30
0.0
 41
1.0
 10
218.0645624170109
 20
1730.76571553707
 30
0.0
 41
1.0
 10
221.1607014910626
 20
1730.766754226738
 30
0.0
 41
1.0
 10
224.2686517149696
 20
1730.767744884358
 30
0.0
 41
1.0
 10
227.3758121485193
 20
1730.768735290233
 30
0.0
 41
1.0
 10
230.4959095641304
 20
1730.769678047104
 30
0.0
 41
1.0
 10
233.6302070826166
 20
1730.770569736481
 30
0.0
 41
1.0
 10
236.764510961736
 20
1730.771461427669
 30
0.0
 41
1.0
 10
239.9110317201766
 20
1730.772301483991
 30
0.0
 41
1.0
 10
243.0690942999845
 20
1730.773087997605
 30
0.0
 41
1.0
 10
245.4390749462852
 20
1730.773678239881
 30
0.0
 41
1.0
 10
247.8154918999116
 20
1730.774238312973
 30
0.0
 41
1.0
 10
250.1973111247912
 20
1730.77476793973
 30
0.0
 41
1.0
 10
252.5796394241629
 20
1730.775297679685
 30
0.0
 41
1.0
 10
254.968229432895
 20
1730.775797151165
 30
0.0
 41
1.0
 10
257.3611568220292
 20
1730.776266402983
 30
0.0
 41
1.0
 10
260.5508958256489
 20
1730.776891909143
 30
0.0
 41
1.0
 10
263.7486246683252
 20
1730.777463772503
 30
0.0
 41
1.0
 10
266.9547994077143
 20
1730.777984322229
 30
0.0
 41
1.0
 10
270.962884130103
 20
1730.778635068858
 30
0.0
 41
1.0
 10
274.9820871500651
 20
1730.779205283135
 30
0.0
 41
1.0
 10
279.011466314673
 20
1730.77970155471
 30
0.0
 41
1.0
 10
283.848575944817
 20
1730.780297309024
 30
0.0
 41
1.0
 10
288.7016786340662
 20
1730.780786662842
 30
0.0
 41
1.0
 10
293.5626382270022
 20
1730.781184550903
 30
0.0
 41
1.0
 10
297.6134876290891
 20
1730.781516128359
 30
0.0
 41
1.0
 10
301.6704631686618
 20
1730.781784243731
 30
0.0
 41
1.0
 10
305.7337780471899
 20
1730.781999768764
 30
0.0
 41
1.0
 10
308.9849467059171
 20
1730.7821722162
 30
0.0
 41
1.0
 10
312.2391738069664
 20
1730.782310945719
 30
0.0
 41
1.0
 10
315.4964614074011
 20
1730.782421933239
 30
0.0
 41
1.0
 10
318.754310732658
 20
1730.782532939899
 30
0.0
 41
1.0
 10
322.0163062418933
 20
1730.782616230764
 30
0.0
 41
1.0
 10
325.2788223576881
 20
1730.782678072543
 30
0.0
 41
1.0
 10
329.3549112376127
 20
1730.782755335791
 30
0.0
 41
1.0
 10
333.4330747561064
 20
1730.782799137305
 30
0.0
 41
1.0
 10
337.5142236138074
 20
1730.782822263091
 30
0.0
 41
1.0
 10
342.4089725006675
 20
1730.782849999133
 30
0.0
 41
1.0
 10
347.3058297311836
 20
1730.782847985991
 30
0.0
 41
1.0
 10
352.20454003181
 20
1730.782840323656
 30
0.0
 41
1.0
 10
357.1032360859301
 20
1730.782832661344
 30
0.0
 41
1.0
 10
362.0027962740917
 20
1730.782819358084
 30
0.0
 41
1.0
 10
366.9025160680963
 20
1730.782820943208
 30
0.0
 41
1.0
 10
371.8045865595686
 20
1730.782822529091
 30
0.0
 41
1.0
 10
376.7054173216564
 20
1730.782839004633
 30
0.0
 41
1.0
 10
381.6059565146379
 20
1730.782844095807
 30
0.0
 41
1.0
 10
386.508852192655
 20
1730.782849189429
 30
0.0
 41
1.0
 10
391.4125324953127
 20
1730.782842893704
 30
0.0
 41
1.0
 10
396.310810122186
 20
1730.782802749946
 30
0.0
 41
1.0
 10
400.3923770695987
 20
1730.782769299528
 30
0.0
 41
1.0
 10
404.4714080717533
 20
1730.782712341678
 30
0.0
 41
1.0
 10
408.5473720973807
 20
1730.782618976546
 30
0.0
 41
1.0
 10
411.8079271314108
 20
1730.782544289393
 30
0.0
 41
1.0
 10
415.0656220190237
 20
1730.782446323989
 30
0.0
 41
1.0
 10
418.3211105188336
 20
1730.782318836915
 30
0.0
 41
1.0
 10
420.7630945418388
 20
1730.782223207211
 30
0.0
 41
1.0
 10
423.2036875135311
 20
1730.782110977662
 30
0.0
 41
1.0
 10
425.6420268007955
 20
1730.781979680734
 30
0.0
 41
1.0
 10
428.0788496650047
 20
1730.78184846546
 30
0.0
 41
1.0
 10
430.5141589130339
 20
1730.781698163728
 30
0.0
 41
1.0
 10
432.947024482258
 20
1730.781526469378
 30
0.0
 41
1.0
 10
436.1870211551965
 20
1730.781297813456
 30
0.0
 41
1.0
 10
439.4224562817526
 20
1730.781031229504
 30
0.0
 41
1.0
 10
442.653290611912
 20
1730.780721594872
 30
0.0
 41
1.0
 10
446.687492636757
 20
1730.780334967599
 30
0.0
 41
1.0
 10
450.7132887116645
 20
1730.779881331872
 30
0.0
 41
1.0
 10
454.7296757062103
 20
1730.779352257363
 30
0.0
 41
1.0
 10
459.547178884203
 20
1730.778717652646
 30
0.0
 41
1.0
 10
464.3487888588412
 20
1730.777974815173
 30
0.0
 41
1.0
 10
469.1335846178117
 20
1730.777113497919
 30
0.0
 41
1.0
 10
473.1228786961744
 20
1730.776395379948
 30
0.0
 41
1.0
 10
477.0983895664069
 20
1730.775595285775
 30
0.0
 41
1.0
 10
481.0593472334619
 20
1730.774710751896
 30
0.0
 41
1.0
 10
484.232408795374
 20
1730.774002165568
 30
0.0
 41
1.0
 10
487.3945610905675
 20
1730.773239745622
 30
0.0
 41
1.0
 10
490.546139682664
 20
1730.772423812882
 30
0.0
 41
1.0
 10
492.9120334154004
 20
1730.771811291221
 30
0.0
 41
1.0
 10
495.2732201881213
 20
1730.771168289103
 30
0.0
 41
1.0
 10
497.6254480813527
 20
1730.770496840493
 30
0.0
 41
1.0
 10
499.9768007419861
 20
1730.76982564172
 30
0.0
 41
1.0
 10
502.3205083545162
 20
1730.769125642536
 30
0.0
 41
1.0
 10
504.6567745663549
 20
1730.768398357538
 30
0.0
 41
1.0
 10
506.9916124130584
 20
1730.767671517193
 30
0.0
 41
1.0
 10
509.3183414361123
 20
1730.766917635919
 30
0.0
 41
1.0
 10
511.6366232794978
 20
1730.766139154724
 30
0.0
 41
1.0
 10
513.95463454191
 20
1730.765360764391
 30
0.0
 41
1.0
 10
516.2637635434172
 20
1730.76455792743
 30
0.0
 41
1.0
 10
518.5636621900703
 20
1730.763733877094
 30
0.0
 41
1.0
 10
520.8645628977376
 20
1730.762909467722
 30
0.0
 41
1.0
 10
523.1553836133359
 20
1730.76206413019
 30
0.0
 41
1.0
 10
525.4365244173418
 20
1730.761202112542
 30
0.0
 41
1.0
 10
527.7185193523535
 20
1730.760339772128
 30
0.0
 41
1.0
 10
529.9917613830084
 20
1730.759460384601
 30
0.0
 41
1.0
 10
532.2523061615713
 20
1730.758569529523
 30
0.0
 41
1.0
 10
534.5115640347601
 20
1730.757679181601
 30
0.0
 41
1.0
 10
536.759352039626
 20
1730.756776900133
 30
0.0
 41
1.0
 10
538.9954557035296
 20
1730.755873024264
 30
0.0
 41
1.0
 10
541.2297527244818
 20
1730.754969878674
 30
0.0
 41
1.0
 10
543.4517722877558
 20
1730.754065374648
 30
0.0
 41
1.0
 10
545.6611716310203
 20
1730.753151017443
 30
0.0
 41
1.0
 10
547.8698611137274
 20
1730.752236954014
 30
0.0
 41
1.0
 10
550.0655221982258
 20
1730.751313224241
 30
0.0
 41
1.0
 10
552.2467413282028
 20
1730.750364620936
 30
0.0
 41
1.0
 10
554.4288613923406
 20
1730.749415625818
 30
0.0
 41
1.0
 10
556.5953470808462
 20
1730.748442260913
 30
0.0
 41
1.0
 10
558.7465416666852
 20
1730.747433972723
 30
0.0
 41
1.0
 10
560.8987609892092
 20
1730.746425204228
 30
0.0
 41
1.0
 10
563.0365976190177
 20
1730.745381051475
 30
0.0
 41
1.0
 10
565.1543555006865
 20
1730.744291488656
 30
0.0
 41
1.0
 10
567.2702823607985
 20
1730.743202867878
 30
0.0
 41
1.0
 10
569.3681102892655
 20
1730.74206792325
 30
0.0
 41
1.0
 10
571.4459876851815
 20
1730.740875421498
 30
0.0
 41
1.0
 10
573.520881859313
 20
1730.739684631829
 30
0.0
 41
1.0
 10
575.5753440044818
 20
1730.738436755518
 30
0.0
 41
1.0
 10
577.6086651369996
 20
1730.737120511707
 30
0.0
 41
1.0
 10
579.6408581303801
 20
1730.735804998182
 30
0.0
 41
1.0
 10
581.6508001257643
 20
1730.73442192161
 30
0.0
 41
1.0
 10
583.6378568417246
 20
1730.732961413188
 30
0.0
 41
1.0
 10
585.2943670302534
 20
1730.731743860079
 30
0.0
 41
1.0
 10
586.934359085649
 20
1730.730472941423
 30
0.0
 41
1.0
 10
588.5572772273478
 20
1730.729144261863
 30
0.0
 41
1.0
 10
589.8570530396892
 20
1730.728080138227
 30
0.0
 41
1.0
 10
591.1452863206964
 20
1730.726979447631
 30
0.0
 41
1.0
 10
592.4223827759633
 20
1730.725839838078
 30
0.0
 41
1.0
 10
593.7005009353288
 20
1730.724699316813
 30
0.0
 41
1.0
 10
594.9683107341334
 20
1730.723519061456
 30
0.0
 41
1.0
 10
596.2227792037167
 20
1730.722300451567
 30
0.0
 41
1.0
 10
597.7893987815903
 20
1730.72077861331
 30
0.0
 41
1.0
 10
599.3369019422726
 20
1730.719195314933
 30
0.0
 41
1.0
 10
600.8650702677218
 20
1730.717549312327
 30
0.0
 41
1.0
 10
602.6958481452932
 20
1730.715577366497
 30
0.0
 41
1.0
 10
604.4978849444309
 20
1730.713516488237
 30
0.0
 41
1.0
 10
606.2710742343187
 20
1730.71136783125
 30
0.0
 41
1.0
 10
608.0431041721733
 20
1730.709220579105
 30
0.0
 41
1.0
 10
609.7851711568749
 20
1730.706987059727
 30
0.0
 41
1.0
 10
611.497411122828
 20
1730.704668262555
 30
0.0
 41
1.0
 10
612.9248952165258
 20
1730.70273509539
 30
0.0
 41
1.0
 10
614.3310183254109
 20
1730.700743511865
 30
0.0
 41
1.0
 10
615.7157636910794
 20
1730.698702603745
 30
0.0
 41
1.0
 10
616.824872936176
 20
1730.697067942152
 30
0.0
 41
1.0
 10
617.91983918593
 20
1730.695402261469
 30
0.0
 41
1.0
 10
619.0010676360743
 20
1730.69369665151
 30
0.0
 41
1.0
 10
619.8130888272942
 20
1730.692415709049
 30
0.0
 41
1.0
 10
620.6171912611739
 20
1730.691112537877
 30
0.0
 41
1.0
 10
621.4130625068926
 20
1730.689812830334
 30
0.0
 41
1.0
 10
622.208832462009
 20
1730.688513288204
 30
0.0
 41
1.0
 10
622.996803776547
 20
1730.687216485045
 30
0.0
 41
1.0
 10
623.7769462546777
 20
1730.685935870544
 30
0.0
 41
1.0
 10
624.8143554103735
 20
1730.684232949289
 30
0.0
 41
1.0
 10
625.8374454268053
 20
1730.682559446432
 30
0.0
 41
1.0
 10
626.847733345011
 20
1730.68091371538
 30
0.0
 41
1.0
 10
628.1068006215657
 20
1730.67886272964
 30
0.0
 41
1.0
 10
629.3449667540373
 20
1730.676856525071
 30
0.0
 41
1.0
 10
630.5633524466728
 20
1730.674903605175
 30
0.0
 41
1.0
 10
632.0215614758151
 20
1730.672566278461
 30
0.0
 41
1.0
 10
633.4506714882043
 20
1730.670306514759
 30
0.0
 41
1.0
 10
634.8529096476315
 20
1730.668127083567
 30
0.0
 41
1.0
 10
636.71840960391
 20
1730.66522762689
 30
0.0
 41
1.0
 10
638.5347373298671
 20
1730.662472863969
 30
0.0
 41
1.0
 10
640.3057794644917
 20
1730.659862542547
 30
0.0
 41
1.0
 10
642.5166643169143
 20
1730.656603941309
 30
0.0
 41
1.0
 10
644.6549037914119
 20
1730.653573510602
 30
0.0
 41
1.0
 10
646.7263272077525
 20
1730.650751335744
 30
0.0
 41
1.0
 10
649.2125587570718
 20
1730.64736401275
 30
0.0
 41
1.0
 10
651.6000802199066
 20
1730.644280035509
 30
0.0
 41
1.0
 10
653.8959141692672
 20
1730.641443269126
 30
0.0
 41
1.0
 10
655.8123946920327
 20
1730.639075237447
 30
0.0
 41
1.0
 10
657.663848760422
 20
1730.636880855263
 30
0.0
 41
1.0
 10
659.4529768909558
 20
1730.634818400785
 30
0.0
 41
1.0
 10
660.8878124709247
 20
1730.633164364377
 30
0.0
 41
1.0
 10
662.2820544716598
 20
1730.631595761416
 30
0.0
 41
1.0
 10
663.636746611499
 20
1730.630087899882
 30
0.0
 41
1.0
 10
664.4854927966377
 20
1730.629143189503
 30
0.0
 41
1.0
 10
665.318568894864
 20
1730.628222489035
 30
0.0
 41
1.0
 10
666.1358352105544
 20
1730.627319292664
 30
0.0
 41
1.0
 10
666.7911297255482
 20
1730.626595098339
 30
0.0
 41
1.0
 10
667.4363707040115
 20
1730.625882035649
 30
0.0
 41
1.0
 10
668.0714595978159
 20
1730.625176875084
 30
0.0
 41
1.0
 10
668.707763473882
 20
1730.624470365482
 30
0.0
 41
1.0
 10
669.3340825391108
 20
1730.623771566798
 30
0.0
 41
1.0
 10
669.9503083652404
 20
1730.623075242339
 30
0.0
 41
1.0
 10
670.7201955093114
 20
1730.622205283265
 30
0.0
 41
1.0
 10
671.4746130032356
 20
1730.62133885163
 30
0.0
 41
1.0
 10
672.213248450944
 20
1730.620477658029
 30
0.0
 41
1.0
 10
673.0986773379945
 20
1730.619445314274
 30
0.0
 41
1.0
 10
673.9614594743122
 20
1730.618420510449
 30
0.0
 41
1.0
 10
674.8020049497918
 20
1730.617336314219
 30
0.0
 41
1.0
 10
675.6418053433955
 20
1730.616253079051
 30
0.0
 41
1.0
 10
676.4594607774438
 20
1730.615110551208
 30
0.0
 41
1.0
 10
677.2521744062482
 20
1730.613776855011
 30
0.0
 41
1.0
 10
678.0442598782656
 20
1730.612444215654
 30
0.0
 41
1.0
 10
678.8108346463952
 20
1730.610921572571
 30
0.0
 41
1.0
 10
679.5496951813704
 20
1730.609302866303
 30
0.0
 41
1.0
 10
680.5346682358806
 20
1730.607144973195
 30
0.0
 41
1.0
 10
681.470097385099
 20
1730.604817073262
 30
0.0
 41
1.0
 10
682.3550244703231
 20
1730.602435151699
 30
0.0
 41
1.0
 10
683.2409750260874
 20
1730.600050475303
 30
0.0
 41
1.0
 10
684.075560358192
 20
1730.597613775525
 30
0.0
 41
1.0
 10
684.8621253381136
 20
1730.595249262405
 30
0.0
 41
1.0
 10
685.6500737079571
 20
1730.592880590642
 30
0.0
 41
1.0
 10
686.3903272520506
 20
1730.590582804548
 30
0.0
 41
1.0
 10
687.0862420106134
 20
1730.588432188456
 30
0.0
 41
1.0
 10
687.7826292677029
 20
1730.58628011218
 30
0.0
 41
1.0
 10
688.4353540705653
 20
1730.584273064797
 30
0.0
 41
1.0
 10
689.0504603326822
 20
1730.582441274429
 30
0.0
 41
1.0
 10
689.8194973717266
 20
1730.580151077226
 30
0.0
 41
1.0
 10
690.5296486596721
 20
1730.57813508791
 30
0.0
 41
1.0
 10
691.1923935848762
 20
1730.576382093351
 30
0.0
 41
1.0
 10
691.9883836843198
 20
1730.574276658425
 30
0.0
 41
1.0
 10
692.7160590840714
 20
1730.572550375369
 30
0.0
 41
1.0
 10
693.3916589869757
 20
1730.571125118187
 30
0.0
 41
1.0
 10
694.0678964020009
 20
1730.569698516098
 30
0.0
 41
1.0
 10
694.6922584051358
 20
1730.568572859889
 30
0.0
 41
1.0
 10
695.2770543462154
 20
1730.567663892618
 30
0.0
 41
1.0
 10
696.0572166968209
 20
1730.566451261009
 30
0.0
 41
1.0
 10
696.7670468172348
 20
1730.56562413692
 30
0.0
 41
1.0
 10
697.4282489080413
 20
1730.565026575163
 30
0.0
 41
1.0
 10
698.255229652724
 20
1730.564279190855
 30
0.0
 41
1.0
 10
699.0057558356395
 20
1730.563891267982
 30
0.0
 41
1.0
 10
699.705850653308
 20
1730.5636948273
 30
0.0
 41
1.0
 10
700.546367487346
 20
1730.563458985387
 30
0.0
 41
1.0
 10
701.3142161120542
 20
1730.563499255809
 30
0.0
 41
1.0
 10
702.0359246226196
 20
1730.563621354
 30
0.0
 41
1.0
 10
702.7578461907294
 20
1730.563743488236
 30
0.0
 41
1.0
 10
703.433401756436
 20
1730.563947476566
 30
0.0
 41
1.0
 10
704.0727282841999
 20
1730.564143821492
 30
0.0
 41
1.0
 10
704.7121366760773
 20
1730.564340191559
 30
0.0
 41
1.0
 10
705.3150870837569
 20
1730.564528844583
 30
0.0
 41
1.0
 10
705.8871743132215
 20
1730.564702278677
 30
0.0
 41
1.0
 10
706.6500114214465
 20
1730.564933540548
 30
0.0
 41
1.0
 10
707.3580051223371
 20
1730.565137752584
 30
0.0
 41
1.0
 10
708.0183921868276
 20
1730.565302375506
 30
0.0
 41
1.0
 10
708.8439190565573
 20
1730.565508164887
 30
0.0
 41
1.0
 10
709.5950275782363
 20
1730.565652081428
 30
0.0
 41
1.0
 10
710.2779163405086
 20
1730.565745440611
 30
0.0
 41
1.0
 10
711.0974033006169
 20
1730.565857474427
 30
0.0
 41
1.0
 10
711.8187118320422
 20
1730.565896710533
 30
0.0
 41
1.0
 10
712.4444024447
 20
1730.565888043077
 30
0.0
 41
1.0
 10
713.0701013981028
 20
1730.565879375507
 30
0.0
 41
1.0
 10
713.6002230784765
 20
1730.565822804385
 30
0.0
 41
1.0
 10
714.0315654338573
 20
1730.565748593155
 30
0.0
 41
1.0
 10
714.3787799567705
 20
1730.565590651269
 30
0.0
 41
1.0
 10
714.7259944796838
 20
1730.565432709383
 30
0.0
 41
1.0
 10
715.0732090025969
 20
1730.565274767497
 30
0.0
 41
1.0
 10
715.1881882081648
 20
1730.565230369277
 30
0.0
 41
1.0
 10
715.303167413733
 20
1730.565185971058
 30
0.0
 41
1.0
 10
715.4181466193009
 20
1730.565141572837
 30
0.0
 41
1.0
  0
SPLINE
  5
83
330
1F
100
AcDbEntity
  8
Default
100
AcDbSpline
210
0.0
220
0.0
230
1.0
 70
    24
 71
     2
 72
     6
 73
     3
 74
     0
 42
0.000000001
 43
0.0000000001
 40
0.0
 40
0.0
 40
0.0
 40
548.8748933199628
 40
548.8748933199628
 40
548.8748933199628
 10
91.06255334001208
 20
1182.782845776252
 30
0.0
 10
365.4999999999935
 20
1182.782845776213
 30
0.0
 10
639.9374466599749
 20
1182.782845776175
 30
0.0
  0
SPLINE
  5
84
330
1F
100
AcDbEntity
  8
Default
100
AcDbSpline
210
0.0
220
0.0
230
1.0
 70
    24
 71
     2
 72
     6
 73
     3
 74
     0
 42
0.000000001
 43
0.0000000001
 40
0.0
 40
0.0
 40
0.0
 40
10.41053175842844
 40
10.41053175842844
 40
10.41053175842844
 10
11.95135976931601
 20
1729.750982085332
 30
0.0
 10
7.044502141251913
 20
1728.013874981201
 30
0.0
 10
2.137644513187813
 20
1726.27676787707
 30
0.0
  0
SPLINE
  5
85
330
1F
100
AcDbEntity
  8
Default
100
AcDbSpline
210
0.0
220
0.0
230
1.0
 70
    24
 71
     2
 72
     6
 73
     3
 74
     0
 42
0.000000001
 43
0.0000000001
 40
0.0
 40
0.0
 40
0.0
 40
10.41054549815522
 40
10.41054549815522
 40
10.41054549815522
 10
719.048640230684
 20
1729.750982085331
 30
0.0
 10
723.955504334775
 20
1728.013872688582
 30
0.0
 10
728.862368438866
 20
1726.276763291833
 30
0.0
  0
SPLINE
  5
86
330
1F
100
AcDbEntity
  8
Default
100
AcDbSpline
210
0.0
220
0.0
230
1.0
 70
    24
 71
     2
 72
     6
 73
     3
 74
     0
 42
0.000000001
 43
0.0000000001
 40
0.0
 40
0.0
 40
0.0
 40
547.6540660917692
 40
547.6540660917692
 40
547.6540660917692
 10
730.8915742647894
 20
1722.831290620242
 30
0.0
 10
685.4145104623821
 20
1452.807068198209
 30
0.0
 10
639.9374466599749
 20
1182.782845776175
 30
0.0
  0
SPLINE
  5
87
330
1F
100
AcDbEntity
  8
Default
100
AcDbSpline
210
0.0
220
0.0
230
1.0
 70
    24
 71
     2
 72
     6
 73
     3
 74
     0
 42
0.000000001
 43
0.0000000001
 40
0.0
 40
0.0
 40
0.0
 40
547.654066091692
 40
547.654066091692
 40
547.654066091692
 10
91.06255334001208
 20
1182.782845776252
 30
0.0
 10
45.58548953761118
 20
1452.807068198247
 30
0.0
 10
0.1084257352102895
 20
1722.831290620242
 30
0.0
  0
SPLINE
  5
88
330
1F
100
AcDbEntity
  8
Default
100
AcDbSpline
210
0.0
220
0.0
230
1.0
 70
    12
 71
     5
 72
    14
 73
     8
 74
     0
 42
0.000000001
 43
0.0000000001
 40
0.0
 40
0.0
 40
0.0
 40
0.0
 40
0.0
 40
0.0
 40
0.4999999403953089
 40
0.4999999403953089
 40
1.0
 40
1.0
 40
1.0
 40
1.0
 40
1.0
 40
1.0
 10
2.136348757994028
 20
1726.276309158737
 30
0.0
 41
1.0
 10
1.711574344451037
 20
1726.125932133899
 30
0.0
 41
1.0
 10
1.286800423981048
 20
1725.975555220336
 30
0.0
 41
1.0
 10
0.4000715897542478
 20
1725.484699607677
 30
0.0
 41
1.0
 10
-0.0425887506473828
 20
1724.732711831366
 30
0.0
 41
1.0
 10
-0.0411805972214552
 20
1723.719591891401
 30
0.0
 41
1.0
 10
0.0336225689943603
 20
1723.275441255822
 30
0.0
 41
1.0
 10
0.1084257352102895
 20
1722.831290620242
 30
0.0
 41
1.0
  0
SPLINE
  5
89
330
1F
100
AcDbEntity
  8
Default
100
AcDbSpline
210
0.0
220
0.0
230
1.0
 70
    12
 71
     5
 72
    14
 73
     8
 74
     0
 42
0.000000001
 43
0.0000000001
 40
-1.0
 40
-1.0
 40
-1.0
 40
-1.0
 40
-1.0
 40
-1.0
 40
-0.4999999403953088
 40
-0.4999999403953088
 40
0.0
 40
0.0
 40
0.0
 40
0.0
 40
0.0
 40
0.0
 10
730.8915742647894
 20
1722.831290620242
 30
0.0
 41
1.0
 10
730.9663774310053
 20
1723.275441255821
 30
0.0
 41
1.0
 10
731.0411805972212
 20
1723.719591891401
 30
0.0
 41
1.0
 10
731.0425887506469
 20
1724.732711831365
 30
0.0
 41
1.0
 10
730.5999284102456
 20
1725.484699607677
 30
0.0
 41
1.0
 10
729.7131995760189
 20
1725.975555220336
 30
0.0
 41
1.0
 10
729.2884256555489
 20
1726.125932133898
 30
0.0
 41
1.0
 10
728.863651242005
 20
1726.276309158738
 30
0.0
 41
1.0
  0
SPLINE
  5
8A
330
1F
100
AcDbEntity
  8
Default
100
AcDbSpline
210
0.0
220
0.0
230
1.0
 70
    12
 71
     5
 72
    12
 73
     6
 74
     0
 42
0.000000001
 43
0.0000000001
 40
0.0002065975608561
 40
0.0002065975608561
 40
0.0002065975608561
 40
0.0002065975608561
 40
0.0002065975608561
 40
0.0002065975608561
 40
0.2916361099737229
 40
0.2916361099737229
 40
0.2916361099737229
 40
0.2916361099737229
 40
0.2916361099737229
 40
0.2916361099737229
 10
719.0461516568282
 20
1729.751863080565
 30
0.0
 41
1.0
 10
718.3440679057979
 20
1730.000411906866
 30
0.0
 41
1.0
 10
717.6418951081948
 20
1730.248853236035
 30
0.0
 41
1.0
 10
716.8978162642314
 20
1730.446652449873
 30
0.0
 41
1.0
 10
716.1449418214282
 20
1730.558866114127
 30
0.0
 41
1.0
 10
715.418147317277
 20
1730.565141570676
 30
0.0
 41
1.0
  0
SPLINE
  5
8B
330
1F
100
AcDbEntity
  8
Default
100
AcDbSpline
210
0.0
220
0.0
230
1.0
 70
    12
 71
     5
 72
    12
 73
     6
 74
     0
 42
0.000000001
 43
0.0000000001
 40
-0.2916360617462677
 40
-0.2916360617462677
 40
-0.2916360617462677
 40
-0.2916360617462677
 40
-0.2916360617462677
 40
-0.2916360617462677
 40
-0.0002021795286196
 40
-0.0002021795286196
 40
-0.0002021795286196
 40
-0.0002021795286196
 40
-0.0002021795286196
 40
-0.0002021795286196
 10
15.58185268276154
 20
1730.565141564443
 30
0.0
 41
1.0
 10
14.85504742933908
 20
1730.558866008467
 30
0.0
 41
1.0
 10
14.10216143176441
 20
1730.44664910552
 30
0.0
 41
1.0
 10
13.35807172205578
 20
1730.248844397081
 30
0.0
 41
1.0
 10
12.65589006937284
 20
1730.000397037525
 30
0.0
 41
1.0
 10
11.95379512801606
 20
1729.751844241552
 30
0.0
 41
1.0
  0
SPLINE
  5
8C
330
1F
100
AcDbEntity
  8
Default
100
AcDbSpline
210
0.0
220
0.0
230
1.0
 70
    24
 71
     2
 72
     6
 73
     3
 74
     0
 42
0.000000001
 43
0.0000000001
 40
0.0
 40
0.0
 40
0.0
 40
579.0643420340432
 40
579.0643420340432
 40
579.0643420340432
 10
3242.245322616341
 20
1182.782845776196
 30
0.0
 10
3346.833773753955
 20
1452.76457468107
 30
0.0
 10
3451.422224891569
 20
1722.746303585944
 30
0.0
  0
SPLINE
  5
8D
330
1F
100
AcDbEntity
  8
Default
100
AcDbSpline
210
0.0
220
0.0
230
1.0
 70
    24
 71
     2
 72
     6
 73
     3
 74
     0
 42
0.000000001
 43
0.0000000001
 40
0.0
 40
0.0
 40
0.0
 40
10.28276418947704
 40
10.28276418947704
 40
10.28276418947704
 10
3449.768887699205
 20
1726.389312227739
 30
0.0
 10
3444.94205869574
 20
1728.160055465876
 30
0.0
 10
3440.115229692275
 20
1729.930798704014
 30
0.0
  0
SPLINE
  5
8E
330
1F
100
AcDbEntity
  8
Default
100
AcDbSpline
210
0.0
220
0.0
230
1.0
 70
    24
 71
     2
 72
     6
 73
     3
 74
     0
 42
0.000000001
 43
0.0000000001
 40
0.0
 40
0.0
 40
0.0
 40
0.0004425357475368
 40
0.0004425357475368
 40
0.0004425357475368
 10
3449.771379688141
 20
1726.388398030746
 30
0.0
 10
3449.771171957579
 20
1726.388474237608
 30
0.0
 10
3449.770964227017
 20
1726.388550444469
 30
0.0
  0
SPLINE
  5
8F
330
1F
100
AcDbEntity
  8
Default
100
AcDbSpline
210
0.0
220
0.0
230
1.0
 70
    24
 71
     2
 72
     6
 73
     3
 74
     0
 42
0.000000001
 43
0.0000000001
 40
0.0
 40
0.0
 40
0.0
 40
10.28275740993009
 40
10.28275740993009
 40
10.28275740993009
 10
1953.806289848374
 20
1726.389351170769
 30
0.0
 10
1958.633115669454
 20
1728.160093241435
 30
0.0
 10
1963.459941490533
 20
1729.9308353121
 30
0.0
  0
SPLINE
  5
90
330
1F
100
AcDbEntity
  8
Default
100
AcDbSpline
210
0.0
220
0.0
230
1.0
 70
    24
 71
     2
 72
     6
 73
     3
 74
     0
 42
0.000000001
 43
0.0000000001
 40
0.0
 40
0.0
 40
0.0
 40
0.0004243242175437
 40
0.0004243242175437
 40
0.0004243242175437
 10
1953.804179264913
 20
1726.388576894036
 30
0.0
 10
1953.804378446806
 20
1726.38864996478
 30
0.0
 10
1953.804577628699
 20
1726.388723035526
 30
0.0
  0
SPLINE
  5
91
330
1F
100
AcDbEntity
  8
Default
100
AcDbSpline
210
0.0
220
0.0
230
1.0
 70
    24
 71
     2
 72
     6
 73
     3
 74
     0
 42
0.000000001
 43
0.0000000001
 40
0.0
 40
0.0
 40
0.0
 40
579.0639622129669
 40
579.0639622129669
 40
579.0639622129669
 10
2161.329748777314
 20
1182.782845776195
 30
0.0
 10
2056.741366241572
 20
1452.764397594097
 30
0.0
 10
1952.152983705829
 20
1722.745949411998
 30
0.0
  0
SPLINE
  5
92
330
1F
100
AcDbEntity
  8
Default
100
AcDbSpline
210
0.0
220
0.0
230
1.0
 70
    12
 71
     3
 72
    13
 73
     9
 74
     0
 42
0.000000001
 43
0.0000000001
 40
0.0007028344193797
 40
0.0007028344193797
 40
0.0007028344193797
 40
0.0007028344193797
 40
1.241807487856743
 40
1.241807487856743
 40
2.385095524704341
 40
2.385095524704341
 40
2.385095524704341
 40
3.384815146311848
 40
3.384815146311848
 40
3.384815146311848
 40
3.384815146311848
 10
1952.152800459176
 20
1722.746269820189
 30
0.0
 41
1.0
 10
1952.00297474123
 20
1723.133040992848
 30
0.0
 41
1.0
 10
1951.869894810853
 20
1723.490270013523
 30
0.0
 41
1.0
 10
1951.759166669288
 20
1724.285767452293
 30
0.0
 41
1.0
 10
1951.779115992021
 20
1724.679006900047
 30
0.0
 41
1.0
 10
1951.940682649993
 20
1725.035596458041
 30
0.0
 41
1.0
 10
1952.56144304935
 20
1725.486382722107
 30
0.0
 41
1.0
 10
1953.182203448706
 20
1725.937168986175
 30
0.0
 41
1.0
 10
1953.802963848063
 20
1726.387955250241
 30
0.0
 41
1.0
  0
SPLINE
  5
93
330
1F
100
AcDbEntity
  8
Default
100
AcDbSpline
210
0.0
220
0.0
230
1.0
 70
    12
 71
     3
 72
    13
 73
     9
 74
     0
 42
0.000000001
 43
0.0000000001
 40
0.0002795054193906
 40
0.0002795054193906
 40
0.0002795054193906
 40
0.0002795054193906
 40
1.0
 40
1.0
 40
1.0
 40
2.143288041361457
 40
2.143288041361457
 40
3.384330373195612
 40
3.384330373195612
 40
3.384330373195612
 40
3.384330373195612
 10
3449.772111334783
 20
1726.387954444493
 30
0.0
 41
1.0
 10
3450.392870471074
 20
1725.937168449009
 30
0.0
 41
1.0
 10
3451.013629607368
 20
1725.486382453524
 30
0.0
 41
1.0
 10
3451.634388743661
 20
1725.03559645804
 30
0.0
 41
1.0
 10
3451.795955402397
 20
1724.679006898361
 30
0.0
 41
1.0
 10
3451.815904724549
 20
1724.285767448561
 30
0.0
 41
1.0
 10
3451.705179475408
 20
1723.490290800195
 30
0.0
 41
1.0
 10
3451.572110015704
 20
1723.133076865122
 30
0.0
 41
1.0
 10
3451.422293503131
 20
1722.746328080678
 30
0.0
 41
1.0
  0
SPLINE
  5
94
330
1F
100
AcDbEntity
  8
Default
100
AcDbSpline
210
0.0
220
0.0
230
1.0
 70
    12
 71
     3
 72
   214
 73
   210
 74
     0
 42
0.000000001
 43
0.0000000001
 40
0.0
 40
0.0
 40
0.0
 40
0.0
 40
0.7630572168416392
 40
1.25943981517174
 40
2.255814431955197
 40
3.165683785846995
 40
3.560958684349425
 40
3.975990707900295
 40
3.975990707900295
 40
3.975990707900295
 40
18.67497455990449
 40
18.67497455990449
 40
18.67497455990449
 40
30.93020988312134
 40
30.93020988312134
 40
30.93020988312134
 40
40.74159310336351
 40
40.74159310336351
 40
40.74159310336351
 40
50.54943563396174
 40
50.54943563396174
 40
50.54943563396174
 40
62.80695047620888
 40
62.80695047620888
 40
62.80695047620888
 40
77.5196183365961
 40
77.5196183365961
 40
77.5196183365961
 40
89.77273438523724
 40
89.77273438523724
 40
89.77273438523724
 40
99.57388463380063
 40
99.57388463380063
 40
99.57388463380063
 40
106.9279507933505
 40
106.9279507933505
 40
106.9279507933505
 40
114.2799777249772
 40
114.2799777249772
 40
114.2799777249772
 40
124.0761408367343
 40
124.0761408367343
 40
124.0761408367343
 40
133.8712239481024
 40
133.8712239481024
 40
133.8712239481024
 40
143.6731922977458
 40
143.6731922977458
 40
143.6731922977458
 40
151.0173505113943
 40
151.0173505113943
 40
151.0173505113943
 40
158.3534632908255
 40
158.3534632908255
 40
158.3534632908255
 40
165.6853083333177
 40
165.6853083333177
 40
165.6853083333177
 40
173.0169141789073
 40
173.0169141789073
 40
173.0169141789073
 40
179.129428756451
 40
179.129428756451
 40
179.129428756451
 40
184.0227255763627
 40
184.0227255763627
 40
184.0227255763627
 40
187.6957209744172
 40
187.6957209744172
 40
187.6957209744172
 40
191.3675797460628
 40
191.3675797460628
 40
191.3675797460628
 40
196.2502303443432
 40
196.2502303443432
 40
196.2502303443432
 40
202.3345431379226
 40
202.3345431379226
 40
202.3345431379226
 40
212.0327564186073
 40
212.0327564186073
 40
212.0327564186073
 40
224.1132806980025
 40
224.1132806980025
 40
224.1132806980025
 40
236.178669892161
 40
236.178669892161
 40
236.178669892161
 40
245.8456850914593
 40
245.8456850914593
 40
245.8456850914593
 40
253.1184063806295
 40
253.1184063806295
 40
253.1184063806295
 40
259.2014253466149
 40
259.2014253466149
 40
259.2014253466149
 40
264.0860905507744
 40
264.0860905507744
 40
264.0860905507744
 40
267.7615908624783
 40
267.7615908624783
 40
267.7615908624783
 40
271.436459958816
 40
271.436459958816
 40
271.436459958816
 40
276.3307729303175
 40
276.3307729303175
 40
276.3307729303175
 40
282.4453688017087
 40
282.4453688017087
 40
282.4453688017087
 40
289.78336330461
 40
289.78336330461
 40
289.78336330461
 40
297.1276946473364
 40
297.1276946473364
 40
297.1276946473364
 40
304.4833554284744
 40
304.4833554284744
 40
304.4833554284744
 40
314.2864751928126
 40
314.2864751928126
 40
314.2864751928126
 40
326.5203993902691
 40
326.5203993902691
 40
326.5203993902691
 40
338.750829522085
 40
338.750829522085
 40
338.750829522085
 40
348.5428335343984
 40
348.5428335343984
 40
348.5428335343984
 40
355.89589789456
 40
355.89589789456
 40
355.89589789456
 40
363.2575683701799
 40
363.2575683701799
 40
363.2575683701799
 40
370.6127007853134
 40
370.6127007853134
 40
370.6127007853134
 40
377.9605737389949
 40
377.9605737389949
 40
377.9605737389949
 40
385.3044114114199
 40
385.3044114114199
 40
385.3044114114199
 40
392.6442489142379
 40
392.6442489142379
 40
392.6442489142379
 40
399.9833455637087
 40
399.9833455637087
 40
399.9833455637087
 40
407.3276796417789
 40
407.3276796417789
 40
407.3276796417789
 40
414.6830750551888
 40
414.6830750551888
 40
414.6830750551888
 40
422.0442595018227
 40
422.0442595018227
 40
422.0442595018227
 40
431.8521577799539
 40
431.8521577799539
 40
431.8521577799539
 40
444.1131857707559
 40
444.1131857707559
 40
444.1131857707559
 40
458.8394004016989
 40
458.8394004016989
 40
458.8394004016989
 40
473.5854171987195
 40
473.5854171987195
 40
473.5854171987195
 40
488.3402960176131
 40
488.3402960176131
 40
488.3402960176131
 40
503.0992085453109
 40
503.0992085453109
 40
503.0992085453109
 40
522.7850545935057
 40
522.7850545935057
 40
522.7850545935057
 40
547.4009639313566
 40
547.4009639313566
 40
547.4009639313566
 40
576.9451392806001
 40
576.9451392806001
 40
576.9451392806001
 40
606.4920554813482
 40
606.4920554813482
 40
606.4920554813482
 40
645.8885890949941
 40
645.8885890949941
 40
645.8885890949941
 40
695.1369077363591
 40
695.1369077363591
 40
695.1369077363591
 40
754.2358631360534
 40
754.2358631360534
 40
754.2358631360534
 40
813.335116353358
 40
813.335116353358
 40
813.335116353358
 40
872.4286411150904
 40
872.4286411150904
 40
872.4286411150904
 40
931.5154940755702
 40
931.5154940755702
 40
931.5154940755702
 40
931.5154940755702
 10
1963.463181933735
 20
1729.932046427556
 30
0.0
 41
1.0
 10
1963.701935730799
 20
1730.019663171766
 30
0.0
 41
1.0
 10
1964.096547463012
 20
1730.163224218589
 30
0.0
 41
1.0
 10
1964.809915498148
 20
1730.400839395532
 30
0.0
 41
1.0
 10
1965.583209300016
 20
1730.61263094896
 30
0.0
 41
1.0
 10
1966.341290829724
 20
1730.737670524288
 30
0.0
 41
1.0
 10
1966.913340935212
 20
1730.781555524255
 30
0.0
 41
1.0
 10
1967.183555188527
 20
1730.783532758008
 30
0.0
 41
1.0
 10
1967.321885190771
 20
1730.782840306364
 30
0.0
 41
1.0
 10
1967.423698407561
 20
1730.782847998485
 30
0.0
 41
1.0
 10
1967.583429616307
 20
1730.782850000538
 30
0.0
 41
1.0
 10
1967.805799456967
 20
1730.782822215923
 30
0.0
 41
1.0
 10
1967.991214596561
 20
1730.782799048715
 30
0.0
 41
1.0
 10
1968.220112574922
 20
1730.782755181841
 30
0.0
 41
1.0
 10
1968.495400266967
 20
1730.782677834723
 30
0.0
 41
1.0
 10
1968.715740747775
 20
1730.78261592603
 30
0.0
 41
1.0
 10
1968.965850566335
 20
1730.7825325576
 30
0.0
 41
1.0
 10
1969.246971716463
 20
1730.782421464099
 30
0.0
 41
1.0
 10
1969.528043805951
 20
1730.782310389986
 30
0.0
 41
1.0
 10
1969.840205030507
 20
1730.782171566594
 30
0.0
 41
1.0
 10
1970.184987051717
 20
1730.781999019112
 30
0.0
 41
1.0
 10
1970.615895325367
 20
1730.781783369416
 30
0.0
 41
1.0
 10
1971.097585287236
 20
1730.78151512318
 30
0.0
 41
1.0
 10
1971.633276353898
 20
1730.781183410033
 30
0.0
 41
1.0
 10
1972.276096845351
 20
1730.780785359698
 30
0.0
 41
1.0
 10
1972.996789655233
 20
1730.780295846372
 30
0.0
 41
1.0
 10
1973.799808779481
 20
1730.779699932005
 30
0.0
 41
1.0
 10
1974.46873283291
 20
1730.779203528566
 30
0.0
 41
1.0
 10
1975.194925048173
 20
1730.778633190955
 30
0.0
 41
1.0
 10
1975.981523431753
 20
1730.777982326246
 30
0.0
 41
1.0
 10
1976.610743263934
 20
1730.777461683195
 30
0.0
 41
1.0
 10
1977.278348568651
 20
1730.776889734962
 30
0.0
 41
1.0
 10
1977.986215785006
 20
1730.776264150098
 30
0.0
 41
1.0
 10
1978.517253734081
 20
1730.7757948399
 30
0.0
 41
1.0
 10
1979.070983095242
 20
1730.775295316214
 30
0.0
 41
1.0
 10
1979.647714118464
 20
1730.774765528411
 30
0.0
 41
1.0
 10
1980.224321252476
 20
1730.774235854414
 30
0.0
 41
1.0
 10
1980.824124747463
 20
1730.773675741086
 30
0.0
 41
1.0
 10
1981.447608288176
 20
1730.773085463717
 30
0.0
 41
1.0
 10
1982.278415966098
 20
1730.772298904109
 30
0.0
 41
1.0
 10
1983.151234803939
 20
1730.771458816638
 30
0.0
 41
1.0
 10
1984.067616078982
 20
1730.770567104229
 30
0.0
 41
1.0
 10
1984.983994368956
 20
1730.769675394725
 30
0.0
 41
1.0
 10
1985.943348181451
 20
1730.768732634393
 30
0.0
 41
1.0
 10
1986.947903826565
 20
1730.767742235978
 30
0.0
 41
1.0
 10
1987.952714048314
 20
1730.766751586574
 30
0.0
 41
1.0
 10
1989.003107227846
 20
1730.765712923924
 30
0.0
 41
1.0
 10
1990.098404408296
 20
1730.764635133359
 30
0.0
 41
1.0
 10
1990.919311577328
 20
1730.763827347109
 30
0.0
 41
1.0
 10
1991.765930789152
 20
1730.762997097884
 30
0.0
 41
1.0
 10
1992.638707115943
 20
1730.76214845123
 30
0.0
 41
1.0
 10
1993.510556835184
 20
1730.761300705566
 30
0.0
 41
1.0
 10
1994.408350719657
 20
1730.760434755128
 30
0.0
 41
1.0
 10
1995.332694177192
 20
1730.759555316599
 30
0.0
 41
1.0
 10
1996.256492036586
 20
1730.758676397163
 30
0.0
 41
1.0
 10
1997.206559605278
 20
1730.757784243824
 30
0.0
 41
1.0
 10
1998.183456235394
 20
1730.756884980757
 30
0.0
 41
1.0
 10
1999.160335043536
 20
1730.755985734096
 30
0.0
 41
1.0
 10
2000.16375344892
 20
1730.755079644401
 30
0.0
 41
1.0
 10
2001.194156521498
 20
1730.754172678836
 30
0.0
 41
1.0
 10
2002.053191317831
 20
1730.753416552422
 30
0.0
 41
1.0
 10
2002.930860276638
 20
1730.752659906076
 30
0.0
 41
1.0
 10
2003.827900406999
 20
1730.751889156904
 30
0.0
 41
1.0
 10
2004.546053046808
 20
1730.751272110314
 30
0.0
 41
1.0
 10
2005.276620054352
 20
1730.750646038587
 30
0.0
 41
1.0
 10
2006.019855139889
 20
1730.750009142504
 30
0.0
 41
1.0
 10
2006.577850953972
 20
1730.749530982422
 30
0.0
 41
1.0
 10
2007.143108031596
 20
1730.749046616898
 30
0.0
 41
1.0
 10
2007.715698095629
 20
1730.748554649006
 30
0.0
 41
1.0
 10
2008.288078379278
 20
1730.748062861357
 30
0.0
 41
1.0
 10
2008.867990480165
 20
1730.747563304653
 30
0.0
 41
1.0
 10
2009.455484667046
 20
1730.747054701856
 30
0.0
 41
1.0
 10
2010.236705405194
 20
1730.74637838699
 30
0.0
 41
1.0
 10
2011.031102611605
 20
1730.745686275167
 30
0.0
 41
1.0
 10
2011.839452404265
 20
1730.744974597068
 30
0.0
 41
1.0
 10
2012.846631871781
 20
1730.744087867616
 30
0.0
 41
1.0
 10
2013.875135145501
 20
1730.743171063245
 30
0.0
 41
1.0
 10
2014.925485642875
 20
1730.742217636627
 30
0.0
 41
1.0
 10
2016.599837967295
 20
1730.740697789607
 30
0.0
 41
1.0
 10
2018.329163322376
 20
1730.739085414098
 30
0.0
 41
1.0
 10
2020.116231907028
 20
1730.737354105382
 30
0.0
 41
1.0
 10
2022.342361184243
 20
1730.735197435485
 30
0.0
 41
1.0
 10
2024.655672030096
 20
1730.732858557157
 30
0.0
 41
1.0
 10
2027.060153630506
 20
1730.730295632343
 30
0.0
 41
1.0
 10
2029.461721975492
 20
1730.727735812753
 30
0.0
 41
1.0
 10
2031.950683447633
 20
1730.724956218166
 30
0.0
 41
1.0
 10
2034.529916662016
 20
1730.7219323391
 30
0.0
 41
1.0
 10
2036.596334207625
 20
1730.719509682349
 30
0.0
 41
1.0
 10
2038.718171750978
 20
1730.7169331636
 30
0.0
 41
1.0
 10
2040.89612720055
 20
1730.714200017384
 30
0.0
 41
1.0
 10
2042.534618936194
 20
1730.712143851594
 30
0.0
 41
1.0
 10
2044.2035746933
 20
1730.710000668471
 30
0.0
 41
1.0
 10
2045.903282247655
 20
1730.707773125822
 30
0.0
 41
1.0
 10
2047.324829867985
 20
1730.705910124187
 30
0.0
 41
1.0
 10
2048.76731613822
 20
1730.703988861065
 30
0.0
 41
1.0
 10
2050.23029453499
 20
1730.702011015428
 30
0.0
 41
1.0
 10
2051.405231327712
 20
1730.700422582124
 30
0.0
 41
1.0
 10
2052.592746012348
 20
1730.69879852639
 30
0.0
 41
1.0
 10
2053.793574039006
 20
1730.697142888324
 30
0.0
 41
1.0
 10
2054.697113042978
 20
1730.695897136613
 30
0.0
 41
1.0
 10
2055.607858653302
 20
1730.694633962336
 30
0.0
 41
1.0
 10
2056.525355494578
 20
1730.69334814491
 30
0.0
 41
1.0
 10
2057.4427803532
 20
1730.692062428363
 30
0.0
 41
1.0
 10
2058.367417105455
 20
1730.690753395694
 30
0.0
 41
1.0
 10
2059.298782930738
 20
1730.689451970802
 30
0.0
 41
1.0
 10
2060.53930517873
 20
1730.687718552536
 30
0.0
 41
1.0
 10
2061.791530981054
 20
1730.685998981996
 30
0.0
 41
1.0
 10
2063.055332598735
 20
1730.684307895068
 30
0.0
 41
1.0
 10
2064.634125700697
 20
1730.682195319535
 30
0.0
 41
1.0
 10
2066.230156306855
 20
1730.680128305753
 30
0.0
 41
1.0
 10
2067.842306037752
 20
1730.678110341679
 30
0.0
 41
1.0
 10
2069.777026075044
 20
1730.675688609098
 30
0.0
 41
1.0
 10
2071.734334432016
 20
1730.67333831118
 30
0.0
 41
1.0
 10
2073.712544530954
 20
1730.67106893082
 30
0.0
 41
1.0
 10
2075.692613639662
 20
1730.668797417825
 30
0.0
 41
1.0
 10
2077.692581220445
 20
1730.666608173207
 30
0.0
 41
1.0
 10
2079.711960992158
 20
1730.664501845661
 30
0.0
 41
1.0
 10
2081.733710413619
 20
1730.662393046437
 30
0.0
 41
1.0
 10
2083.775718419483
 20
1730.660366522677
 30
0.0
 41
1.0
 10
2085.833194766425
 20
1730.658424650375
 30
0.0
 41
1.0
 10
2088.57570254441
 20
1730.655836236709
 30
0.0
 41
1.0
 10
2091.349121565233
 20
1730.653394989287
 30
0.0
 41
1.0
 10
2094.148707959251
 20
1730.651092575724
 30
0.0
 41
1.0
 10
2097.643485373689
 20
1730.648218428695
 30
0.0
 41
1.0
 10
2101.177816150667
 20
1730.645561643898
 30
0.0
 41
1.0
 10
2104.750997941675
 20
1730.643088029163
 30
0.0
 41
1.0
 10
2108.322731915371
 20
1730.640615416711
 30
0.0
 41
1.0
 10
2111.930120076808
 20
1730.638328002113
 30
0.0
 41
1.0
 10
2115.570807559626
 20
1730.636184787205
 30
0.0
 41
1.0
 10
2118.485612160927
 20
1730.634468888023
 30
0.0
 41
1.0
 10
2121.420792874014
 20
1730.632845984198
 30
0.0
 41
1.0
 10
2124.375429035056
 20
1730.631291667999
 30
0.0
 41
1.0
 10
2126.594224415343
 20
1730.630124448276
 30
0.0
 41
1.0
 10
2128.823304374581
 20
1730.628996267078
 30
0.0
 41
1.0
 10
2131.062962609373
 20
1730.627895052849
 30
0.0
 41
1.0
 10
2133.3044467247
 20
1730.626792940854
 30
0.0
 41
1.0
 10
2135.557995362742
 20
1730.62571712563
 30
0.0
 41
1.0
 10
2137.819154682886
 20
1730.624658182966
 30
0.0
 41
1.0
 10
2140.079063703742
 20
1730.623599825841
 30
0.0
 41
1.0
 10
2142.348198368171
 20
1730.622557574168
 30
0.0
 41
1.0
 10
2144.626726711416
 20
1730.621512818686
 30
0.0
 41
1.0
 10
2146.903012644732
 20
1730.620469091398
 30
0.0
 41
1.0
 10
2149.188001433405
 20
1730.619423163556
 30
0.0
 41
1.0
 10
2151.481821646707
 20
1730.618375877832
 30
0.0
 41
1.0
 10
2153.774205476665
 20
1730.617329247916
 30
0.0
 41
1.0
 10
2156.075270921906
 20
1730.616281377656
 30
0.0
 41
1.0
 10
2158.38474746215
 20
1730.615040858395
 30
0.0
 41
1.0
 10
2160.693094902835
 20
1730.613800945622
 30
0.0
 41
1.0
 10
2163.009742892979
 20
1730.612368552349
 30
0.0
 41
1.0
 10
2165.335621754676
 20
1730.610817751705
 30
0.0
 41
1.0
 10
2167.661317240019
 20
1730.609267073329
 30
0.0
 41
1.0
 10
2169.995507237671
 20
1730.607598523523
 30
0.0
 41
1.0
 10
2172.338741739467
 20
1730.605863161534
 30
0.0
 41
1.0
 10
2174.683720550389
 20
1730.604126507738
 30
0.0
 41
1.0
 10
2177.036593386707
 20
1730.602323832384
 30
0.0
 41
1.0
 10
2179.397963223166
 20
1730.600513184852
 30
0.0
 41
1.0
 10
2181.76248402209
 20
1730.598700121231
 30
0.0
 41
1.0
 10
2184.135362543952
 20
1730.596879186223
 30
0.0
 41
1.0
 10
2186.514477416869
 20
1730.595099036119
 30
0.0
 41
1.0
 10
2188.89521628231
 20
1730.593317670878
 30
0.0
 41
1.0
 10
2191.284074076761
 20
1730.591575707392
 30
0.0
 41
1.0
 10
2193.677277303244
 20
1730.589909421589
 30
0.0
 41
1.0
 10
2196.867074064614
 20
1730.587688501527
 30
0.0
 41
1.0
 10
2200.065285559459
 20
1730.585601523065
 30
0.0
 41
1.0
 10
2203.27285004516
 20
1730.583686997082
 30
0.0
 41
1.0
 10
2207.282064372138
 20
1730.581293983618
 30
0.0
 41
1.0
 10
2211.303123968918
 20
1730.579172096133
 30
0.0
 41
1.0
 10
2215.332600969864
 20
1730.577320653019
 30
0.0
 41
1.0
 10
2220.172392983152
 20
1730.575096890581
 30
0.0
 41
1.0
 10
2225.023776772604
 20
1730.57326353004
 30
0.0
 41
1.0
 10
2229.88313922897
 20
1730.57174563081
 30
0.0
 41
1.0
 10
2234.748337064335
 20
1730.570225908807
 30
0.0
 41
1.0
 10
2239.623316367252
 20
1730.569021835579
 30
0.0
 41
1.0
 10
2244.50119533068
 20
1730.568047620456
 30
0.0
 41
1.0
 10
2249.382822897282
 20
1730.567072656657
 30
0.0
 41
1.0
 10
2254.26982486606
 20
1730.566327424037
 30
0.0
 41
1.0
 10
2259.159354130238
 20
1730.565741648302
 30
0.0
 41
1.0
 10
2264.050773868898
 20
1730.565155646083
 30
0.0
 41
1.0
 10
2268.94572710749
 20
1730.564729113765
 30
0.0
 41
1.0
 10
2273.84246846688
 20
1730.564409909474
 30
0.0
 41
1.0
 10
2280.374473134736
 20
1730.563984107136
 30
0.0
 41
1.0
 10
2286.910744853672
 20
1730.563749191437
 30
0.0
 41
1.0
 10
2293.448824258938
 20
1730.563628655191
 30
0.0
 41
1.0
 10
2301.625042637942
 20
1730.56347791816
 30
0.0
 41
1.0
 10
2309.805514344825
 20
1730.563506029367
 30
0.0
 41
1.0
 10
2317.987693742669
 20
1730.563599221126
 30
0.0
 41
1.0
 10
2327.808597474559
 20
1730.5637110773
 30
0.0
 41
1.0
 10
2337.633269620866
 20
1730.563916732731
 30
0.0
 41
1.0
 10
2347.459771710547
 20
1730.564114535734
 30
0.0
 41
1.0
 10
2357.287522324426
 20
1730.56431236387
 30
0.0
 41
1.0
 10
2367.117860635624
 20
1730.564502358134
 30
0.0
 41
1.0
 10
2376.949695145187
 20
1730.564677763323
 30
0.0
 41
1.0
 10
2390.059212502704
 20
1730.564911644127
 30
0.0
 41
1.0
 10
2403.172306138418
 20
1730.565119600748
 30
0.0
 41
1.0
 10
2416.287292445983
 20
1730.56528734692
 30
0.0
 41
1.0
 10
2432.682190406784
 20
1730.565497044536
 30
0.0
 41
1.0
 10
2449.081356810431
 20
1730.565643924856
 30
0.0
 41
1.0
 10
2465.482562140829
 20
1730.565739667743
 30
0.0
 41
1.0
 10
2485.164685339456
 20
1730.565854563157
 30
0.0
 41
1.0
 10
2504.851734000023
 20
1730.565895823147
 30
0.0
 41
1.0
 10
2524.540674870037
 20
1730.565888359128
 30
0.0
 41
1.0
 10
2544.230035774211
 20
1730.56588089495
 30
0.0
 41
1.0
 10
2563.923351695142
 20
1730.565824708612
 30
0.0
 41
1.0
 10
2583.61779742992
 20
1730.565750520404
 30
0.0
 41
1.0
 10
2603.31035653534
 20
1730.565676339303
 30
0.0
 41
1.0
 10
2623.006242031312
 20
1730.565584150148
 30
0.0
 41
1.0
 10
2642.702365069185
 20
1730.565508376206
 30
0.0
 41
1.0
 10
2662.396246618678
 20
1730.565432610886
 30
0.0
 41
1.0
 10
2682.092568772557
 20
1730.565373253438
 30
0.0
 41
1.0
 10
2701.787535696826
 20
1730.565373254091
 30
0.0
 41
1.0
  0
SPLINE
  5
95
330
1F
100
AcDbEntity
  8
Default
100
AcDbSpline
210
0.0
220
0.0
230
1.0
 70
    12
 71
     3
 72
   209
 73
   205
 74
     0
 42
0.000000001
 43
0.0000000001
 40
0.0
 40
0.0
 40
0.0
 40
0.0
 40
59.08685296149684
 40
59.08685296149684
 40
59.08685296149684
 40
118.1803777236971
 40
118.1803777236971
 40
118.1803777236971
 40
177.2796309411605
 40
177.2796309411605
 40
177.2796309411605
 40
236.3785863407227
 40
236.3785863407227
 40
236.3785863407227
 40
285.6269049818445
 40
285.6269049818445
 40
285.6269049818445
 40
325.023438595301
 40
325.023438595301
 40
325.023438595301
 40
354.5703547959483
 40
354.5703547959483
 40
354.5703547959483
 40
384.1145301448149
 40
384.1145301448149
 40
384.1145301448149
 40
408.730439481879
 40
408.730439481879
 40
408.730439481879
 40
428.4162855291224
 40
428.4162855291224
 40
428.4162855291224
 40
443.1751980562639
 40
443.1751980562639
 40
443.1751980562639
 40
457.9300768734563
 40
457.9300768734563
 40
457.9300768734563
 40
472.6760936704772
 40
472.6760936704772
 40
472.6760936704772
 40
487.4023083014213
 40
487.4023083014213
 40
487.4023083014213
 40
499.6633362922141
 40
499.6633362922141
 40
499.6633362922141
 40
509.4712345703544
 40
509.4712345703544
 40
509.4712345703544
 40
516.8324190169869
 40
516.8324190169869
 40
516.8324190169869
 40
524.1878144303957
 40
524.1878144303957
 40
524.1878144303957
 40
531.5321485084646
 40
531.5321485084646
 40
531.5321485084646
 40
538.8712451579372
 40
538.8712451579372
 40
538.8712451579372
 40
546.2110826607577
 40
546.2110826607577
 40
546.2110826607577
 40
553.5549203331765
 40
553.5549203331765
 40
553.5549203331765
 40
560.9027932868611
 40
560.9027932868611
 40
560.9027932868611
 40
568.257925701995
 40
568.257925701995
 40
568.257925701995
 40
575.619596177615
 40
575.619596177615
 40
575.619596177615
 40
582.9726605377771
 40
582.9726605377771
 40
582.9726605377771
 40
592.7646645500894
 40
592.7646645500894
 40
592.7646645500894
 40
604.9950946819028
 40
604.9950946819028
 40
604.9950946819028
 40
617.2290188793685
 40
617.2290188793685
 40
617.2290188793685
 40
627.0321386436976
 40
627.0321386436976
 40
627.0321386436976
 40
634.3877994248373
 40
634.3877994248373
 40
634.3877994248373
 40
641.7321307675641
 40
641.7321307675641
 40
641.7321307675641
 40
649.0701252704655
 40
649.0701252704655
 40
649.0701252704655
 40
655.1847211418547
 40
655.1847211418547
 40
655.1847211418547
 40
660.0790341133643
 40
660.0790341133643
 40
660.0790341133643
 40
663.7539032096624
 40
663.7539032096624
 40
663.7539032096624
 40
667.4294035213577
 40
667.4294035213577
 40
667.4294035213577
 40
672.3140687255149
 40
672.3140687255149
 40
672.3140687255149
 40
678.3970876914994
 40
678.3970876914994
 40
678.3970876914994
 40
685.6698089806696
 40
685.6698089806696
 40
685.6698089806696
 40
695.3368241799686
 40
695.3368241799686
 40
695.3368241799686
 40
707.4022133741297
 40
707.4022133741297
 40
707.4022133741297
 40
719.4827376535148
 40
719.4827376535148
 40
719.4827376535148
 40
729.1809509342097
 40
729.1809509342097
 40
729.1809509342097
 40
735.2652637277893
 40
735.2652637277893
 40
735.2652637277893
 40
740.1479143260603
 40
740.1479143260603
 40
740.1479143260603
 40
743.8197730977523
 40
743.8197730977523
 40
743.8197730977523
 40
747.4927684958281
 40
747.4927684958281
 40
747.4927684958281
 40
752.3860653159239
 40
752.3860653159239
 40
752.3860653159239
 40
758.4985798934654
 40
758.4985798934654
 40
758.4985798934654
 40
765.8301857390524
 40
765.8301857390524
 40
765.8301857390524
 40
773.1620307815464
 40
773.1620307815464
 40
773.1620307815464
 40
780.498143560978
 40
780.498143560978
 40
780.498143560978
 40
787.8423017746284
 40
787.8423017746284
 40
787.8423017746284
 40
797.6442701242633
 40
797.6442701242633
 40
797.6442701242633
 40
807.4393532356433
 40
807.4393532356433
 40
807.4393532356433
 40
817.2355163473923
 40
817.2355163473923
 40
817.2355163473923
 40
824.5875432790208
 40
824.5875432790208
 40
824.5875432790208
 40
831.9416094385685
 40
831.9416094385685
 40
831.9416094385685
 40
841.7427596871416
 40
841.7427596871416
 40
841.7427596871416
 40
853.9958757357727
 40
853.9958757357727
 40
853.9958757357727
 40
868.70854359616
 40
868.70854359616
 40
868.70854359616
 40
880.9660584384177
 40
880.9660584384177
 40
880.9660584384177
 40
890.7739009690041
 40
890.7739009690041
 40
890.7739009690041
 40
900.5852841892524
 40
900.5852841892524
 40
900.5852841892524
 40
912.8405195124683
 40
912.8405195124683
 40
912.8405195124683
 40
927.5395033644725
 40
927.5395033644725
 40
927.5395033644725
 40
927.5522870729693
 40
927.5522870729693
 40
927.5522870729693
 40
927.5522870729693
 10
2701.787535696825
 20
1730.565373254091
 30
0.0
 41
1.0
 10
2721.482970886369
 20
1730.565373251569
 30
0.0
 41
1.0
 10
2741.179342832643
 20
1730.565432612378
 30
0.0
 41
1.0
 10
2760.872706324474
 20
1730.565508376206
 30
0.0
 41
1.0
 10
2780.569223329328
 20
1730.565584152165
 30
0.0
 41
1.0
 10
2800.265135975278
 20
1730.565676341023
 30
0.0
 41
1.0
 10
2819.95727396373
 20
1730.565750520404
 30
0.0
 41
1.0
 10
2839.652080231133
 20
1730.565824709836
 30
0.0
 41
1.0
 10
2859.345406459538
 20
1730.565880895055
 30
0.0
 41
1.0
 10
2879.034396523613
 20
1730.565888359128
 30
0.0
 41
1.0
 10
2898.723706509828
 20
1730.565895823322
 30
0.0
 41
1.0
 10
2918.410745738566
 20
1730.565854561067
 30
0.0
 41
1.0
 10
2938.092509252832
 20
1730.565739667742
 30
0.0
 41
1.0
 10
2954.493961765788
 20
1730.565643923406
 30
0.0
 41
1.0
 10
2970.893109146659
 20
1730.565497041616
 30
0.0
 41
1.0
 10
2987.287778947662
 20
1730.565287346919
 30
0.0
 41
1.0
 10
3000.402929921993
 20
1730.565119598643
 30
0.0
 41
1.0
 10
3013.51600337891
 20
1730.56491164155
 30
0.0
 41
1.0
 10
3026.625376248466
 20
1730.564677763323
 30
0.0
 41
1.0
 10
3036.457306809255
 20
1730.56450235642
 30
0.0
 41
1.0
 10
3046.287631789337
 20
1730.564312362204
 30
0.0
 41
1.0
 10
3056.115299683106
 20
1730.564114535734
 30
0.0
 41
1.0
 10
3065.941956655802
 20
1730.563916729613
 30
0.0
 41
1.0
 10
3075.76659652684
 20
1730.563711075904
 30
0.0
 41
1.0
 10
3085.587377650981
 20
1730.563599221126
 30
0.0
 41
1.0
 10
3093.769738140413
 20
1730.563506027305
 30
0.0
 41
1.0
 10
3101.950158023034
 20
1730.563477920544
 30
0.0
 41
1.0
 10
3110.126247134723
 20
1730.563628655191
 30
0.0
 41
1.0
 10
3116.664510036826
 20
1730.56374919482
 30
0.0
 41
1.0
 10
3123.200734869138
 20
1730.563984116042
 30
0.0
 41
1.0
 10
3129.732602926767
 20
1730.564409909474
 30
0.0
 41
1.0
 10
3134.629478716054
 20
1730.564729122528
 30
0.0
 41
1.0
 10
3139.524404102305
 20
1730.565155658851
 30
0.0
 41
1.0
 10
3144.415717263417
 20
1730.565741648301
 30
0.0
 41
1.0
 10
3149.305475995012
 20
1730.566327451527
 30
0.0
 41
1.0
 10
3154.192428567454
 20
1730.56707269262
 30
0.0
 41
1.0
 10
3159.073876062974
 20
1730.568047620455
 30
0.0
 41
1.0
 10
3163.951755026422
 20
1730.569021835579
 30
0.0
 41
1.0
 10
3168.826734329298
 20
1730.570225908807
 30
0.0
 41
1.0
 10
3173.691932164684
 20
1730.57174563081
 30
0.0
 41
1.0
 10
3178.551294621073
 20
1730.57326353004
 30
0.0
 41
1.0
 10
3183.40267841048
 20
1730.575096890581
 30
0.0
 41
1.0
 10
3188.242470423791
 20
1730.577320653018
 30
0.0
 41
1.0
 10
3192.271947424729
 20
1730.579172096132
 30
0.0
 41
1.0
 10
3196.293007021516
 20
1730.581293983618
 30
0.0
 41
1.0
 10
3200.302221348485
 20
1730.583686997082
 30
0.0
 41
1.0
 10
3203.509785834178
 20
1730.585601523065
 30
0.0
 41
1.0
 10
3206.707997329051
 20
1730.587688501527
 30
0.0
 41
1.0
 10
3209.897794090411
 20
1730.589909421589
 30
0.0
 41
1.0
 10
3212.290997316887
 20
1730.591575707392
 30
0.0
 41
1.0
 10
3214.679855111351
 20
1730.593317670878
 30
0.0
 41
1.0
 10
3217.060593976784
 20
1730.595099036119
 30
0.0
 41
1.0
 10
3219.43970884972
 20
1730.596879186223
 30
0.0
 41
1.0
 10
3221.812587371545
 20
1730.598700121231
 30
0.0
 41
1.0
 10
3224.177108170486
 20
1730.600513184852
 30
0.0
 41
1.0
 10
3226.538478006949
 20
1730.602323832383
 30
0.0
 41
1.0
 10
3228.891350843258
 20
1730.604126507737
 30
0.0
 41
1.0
 10
3231.236329654183
 20
1730.605863161534
 30
0.0
 41
1.0
 10
3233.579564156003
 20
1730.607598523522
 30
0.0
 41
1.0
 10
3235.913754153612
 20
1730.609267073329
 30
0.0
 41
1.0
 10
3238.239449638977
 20
1730.610817751704
 30
0.0
 41
1.0
 10
3240.565328500714
 20
1730.612368552348
 30
0.0
 41
1.0
 10
3242.881976490782
 20
1730.613800945622
 30
0.0
 41
1.0
 10
3245.190323931505
 20
1730.615040858395
 30
0.0
 41
1.0
 10
3247.499800471729
 20
1730.616281377656
 30
0.0
 41
1.0
 10
3249.800865917004
 20
1730.617329247916
 30
0.0
 41
1.0
 10
3252.093249746943
 20
1730.618375877832
 30
0.0
 41
1.0
 10
3254.387069960258
 20
1730.619423163556
 30
0.0
 41
1.0
 10
3256.672058748907
 20
1730.620469091398
 30
0.0
 41
1.0
 10
3258.948344682237
 20
1730.621512818685
 30
0.0
 41
1.0
 10
3261.226873025488
 20
1730.622557574168
 30
0.0
 41
1.0
 10
3263.496007689904
 20
1730.623599825841
 30
0.0
 41
1.0
 10
3265.755916710767
 20
1730.624658182966
 30
0.0
 41
1.0
 10
3268.017076030905
 20
1730.62571712563
 30
0.0
 41
1.0
 10
3270.27062466896
 20
1730.626792940855
 30
0.0
 41
1.0
 10
3272.51210878428
 20
1730.627895052849
 30
0.0
 41
1.0
 10
3274.751767019065
 20
1730.628996267078
 30
0.0
 41
1.0
 10
3276.980846978317
 20
1730.630124448276
 30
0.0
 41
1.0
 10
3279.199642358597
 20
1730.631291667999
 30
0.0
 41
1.0
 10
3282.154278519644
 20
1730.632845984198
 30
0.0
 41
1.0
 10
3285.089459232719
 20
1730.634468888022
 30
0.0
 41
1.0
 10
3288.004263834026
 20
1730.636184787205
 30
0.0
 41
1.0
 10
3291.644951316835
 20
1730.638328002113
 30
0.0
 41
1.0
 10
3295.252339478289
 20
1730.640615416711
 30
0.0
 41
1.0
 10
3298.824073451976
 20
1730.643088029163
 30
0.0
 41
1.0
 10
3302.397255242978
 20
1730.645561643898
 30
0.0
 41
1.0
 10
3305.931586019975
 20
1730.648218428694
 30
0.0
 41
1.0
 10
3309.426363434408
 20
1730.651092575724
 30
0.0
 41
1.0
 10
3312.225949828406
 20
1730.653394989286
 30
0.0
 41
1.0
 10
3314.999368849259
 20
1730.655836236709
 30
0.0
 41
1.0
 10
3317.741876627226
 20
1730.658424650375
 30
0.0
 41
1.0
 10
3319.79935297418
 20
1730.660366522677
 30
0.0
 41
1.0
 10
3321.841360980021
 20
1730.662393046436
 30
0.0
 41
1.0
 10
3323.863110401493
 20
1730.664501845661
 30
0.0
 41
1.0
 10
3325.882490173234
 20
1730.666608173206
 30
0.0
 41
1.0
 10
3327.882457753965
 20
1730.668797417825
 30
0.0
 41
1.0
 10
3329.862526862698
 20
1730.67106893082
 30
0.0
 41
1.0
 10
3331.840736961634
 20
1730.673338311179
 30
0.0
 41
1.0
 10
3333.798045318609
 20
1730.675688609098
 30
0.0
 41
1.0
 10
3335.732765355901
 20
1730.678110341679
 30
0.0
 41
1.0
 10
3337.344915086772
 20
1730.680128305753
 30
0.0
 41
1.0
 10
3338.940945692979
 20
1730.682195319535
 30
0.0
 41
1.0
 10
3340.519738794916
 20
1730.684307895068
 30
0.0
 41
1.0
 10
3341.783540412604
 20
1730.685998981996
 30
0.0
 41
1.0
 10
3343.035766214921
 20
1730.687718552536
 30
0.0
 41
1.0
 10
3344.276288462919
 20
1730.689451970801
 30
0.0
 41
1.0
 10
3345.207706125563
 20
1730.690753468127
 30
0.0
 41
1.0
 10
3346.132341616142
 20
1730.69206249924
 30
0.0
 41
1.0
 10
3347.049715899071
 20
1730.693348144909
 30
0.0
 41
1.0
 10
3347.967264865977
 20
1730.694634035387
 30
0.0
 41
1.0
 10
3348.878009442604
 20
1730.695897207055
 30
0.0
 41
1.0
 10
3349.781497354648
 20
1730.697142888324
 30
0.0
 41
1.0
 10
3350.982325381298
 20
1730.69879852639
 30
0.0
 41
1.0
 10
3352.169840065949
 20
1730.700422582123
 30
0.0
 41
1.0
 10
3353.344776858663
 20
1730.702011015428
 30
0.0
 41
1.0
 10
3354.807755255436
 20
1730.703988861065
 30
0.0
 41
1.0
 10
3356.250241525666
 20
1730.705910124187
 30
0.0
 41
1.0
 10
3357.671789145998
 20
1730.707773125822
 30
0.0
 41
1.0
 10
3359.371496700357
 20
1730.710000668471
 30
0.0
 41
1.0
 10
3361.040452457455
 20
1730.712143851594
 30
0.0
 41
1.0
 10
3362.678944193103
 20
1730.714200017384
 30
0.0
 41
1.0
 10
3364.856899642658
 20
1730.7169331636
 30
0.0
 41
1.0
 10
3366.978737186046
 20
1730.719509682349
 30
0.0
 41
1.0
 10
3369.045154731637
 20
1730.721932339099
 30
0.0
 41
1.0
 10
3371.624387946014
 20
1730.724956218165
 30
0.0
 41
1.0
 10
3374.113349418168
 20
1730.727735812753
 30
0.0
 41
1.0
 10
3376.514917763149
 20
1730.730295632343
 30
0.0
 41
1.0
 10
3378.919399363568
 20
1730.732858557157
 30
0.0
 41
1.0
 10
3381.232710209399
 20
1730.735197435484
 30
0.0
 41
1.0
 10
3383.45883948662
 20
1730.737354105382
 30
0.0
 41
1.0
 10
3385.245908071279
 20
1730.739085414098
 30
0.0
 41
1.0
 10
3386.975233426352
 20
1730.740697789607
 30
0.0
 41
1.0
 10
3388.649585750779
 20
1730.742217636627
 30
0.0
 41
1.0
 10
3389.699936248148
 20
1730.743171063245
 30
0.0
 41
1.0
 10
3390.728439521881
 20
1730.744087867616
 30
0.0
 41
1.0
 10
3391.73561898939
 20
1730.744974597068
 30
0.0
 41
1.0
 10
3392.543968782027
 20
1730.745686275167
 30
0.0
 41
1.0
 10
3393.338365988477
 20
1730.74637838699
 30
0.0
 41
1.0
 10
3394.119586726603
 20
1730.747054701856
 30
0.0
 41
1.0
 10
3394.707101912024
 20
1730.747563322832
 30
0.0
 41
1.0
 10
3395.287013999624
 20
1730.748062879387
 30
0.0
 41
1.0
 10
3395.859373298026
 20
1730.748554649006
 30
0.0
 41
1.0
 10
3396.431982670603
 20
1730.749046633488
 30
0.0
 41
1.0
 10
3396.997239781807
 20
1730.749530998997
 30
0.0
 41
1.0
 10
3397.55521625376
 20
1730.750009142503
 30
0.0
 41
1.0
 10
3398.298492253502
 20
1730.750646073647
 30
0.0
 41
1.0
 10
3399.029059542877
 20
1730.75127214571
 30
0.0
 41
1.0
 10
3399.747170986656
 20
1730.751889156903
 30
0.0
 41
1.0
 10
3400.644211117036
 20
1730.752659906076
 30
0.0
 41
1.0
 10
3401.521880075801
 20
1730.753416552422
 30
0.0
 41
1.0
 10
3402.380914872154
 20
1730.754172678835
 30
0.0
 41
1.0
 10
3403.411317944712
 20
1730.755079644401
 30
0.0
 41
1.0
 10
3404.414736350136
 20
1730.755985734096
 30
0.0
 41
1.0
 10
3405.391615158258
 20
1730.756884980757
 30
0.0
 41
1.0
 10
3406.368511788355
 20
1730.757784243824
 30
0.0
 41
1.0
 10
3407.318579357086
 20
1730.758676397162
 30
0.0
 41
1.0
 10
3408.242377216463
 20
1730.759555316599
 30
0.0
 41
1.0
 10
3409.166720673991
 20
1730.760434755128
 30
0.0
 41
1.0
 10
3410.064514558477
 20
1730.761300705565
 30
0.0
 41
1.0
 10
3410.93636427771
 20
1730.76214845123
 30
0.0
 41
1.0
 10
3411.809140604506
 20
1730.762997097883
 30
0.0
 41
1.0
 10
3412.655759816317
 20
1730.763827347109
 30
0.0
 41
1.0
 10
3413.476666985356
 20
1730.764635133359
 30
0.0
 41
1.0
 10
3414.57196416581
 20
1730.765712923925
 30
0.0
 41
1.0
 10
3415.622357345336
 20
1730.766751586574
 30
0.0
 41
1.0
 10
3416.627167567086
 20
1730.767742235978
 30
0.0
 41
1.0
 10
3417.6317232122
 20
1730.768732634393
 30
0.0
 41
1.0
 10
3418.591077024697
 20
1730.769675394725
 30
0.0
 41
1.0
 10
3419.507455314672
 20
1730.770567104229
 30
0.0
 41
1.0
 10
3420.423836589705
 20
1730.771458816638
 30
0.0
 41
1.0
 10
3421.296655427565
 20
1730.772298904109
 30
0.0
 41
1.0
 10
3422.127463105478
 20
1730.773085463717
 30
0.0
 41
1.0
 10
3422.750946646182
 20
1730.773675741086
 30
0.0
 41
1.0
 10
3423.350750141182
 20
1730.774235854413
 30
0.0
 41
1.0
 10
3423.927357275189
 20
1730.774765528411
 30
0.0
 41
1.0
 10
3424.504088298388
 20
1730.775295316214
 30
0.0
 41
1.0
 10
3425.057817659592
 20
1730.7757948399
 30
0.0
 41
1.0
 10
3425.588855608646
 20
1730.776264150098
 30
0.0
 41
1.0
 10
3426.296722825018
 20
1730.776889734962
 30
0.0
 41
1.0
 10
3426.964328129705
 20
1730.777461683195
 30
0.0
 41
1.0
 10
3427.593547961901
 20
1730.777982326246
 30
0.0
 41
1.0
 10
3428.380146345482
 20
1730.778633190954
 30
0.0
 41
1.0
 10
3429.106338560742
 20
1730.779203528566
 30
0.0
 41
1.0
 10
3429.775262614171
 20
1730.779699932005
 30
0.0
 41
1.0
 10
3430.578281738429
 20
1730.780295846372
 30
0.0
 41
1.0
 10
3431.29897454829
 20
1730.780785359699
 30
0.0
 41
1.0
 10
3431.941795039754
 20
1730.781183410033
 30
0.0
 41
1.0
 10
3432.477486106412
 20
1730.781515123181
 30
0.0
 41
1.0
 10
3432.959176068296
 20
1730.781783369416
 30
0.0
 41
1.0
 10
3433.390084341941
 20
1730.781999019111
 30
0.0
 41
1.0
 10
3433.734866363158
 20
1730.782171566593
 30
0.0
 41
1.0
 10
3434.047027587695
 20
1730.782310389985
 30
0.0
 41
1.0
 10
3434.328099677188
 20
1730.782421464098
 30
0.0
 41
1.0
 10
3434.609220827318
 20
1730.782532557599
 30
0.0
 41
1.0
 10
3434.859330645867
 20
1730.782615926029
 30
0.0
 41
1.0
 10
3435.079671126681
 20
1730.782677834723
 30
0.0
 41
1.0
 10
3435.354958818724
 20
1730.78275518184
 30
0.0
 41
1.0
 10
3435.583856797097
 20
1730.782799048714
 30
0.0
 41
1.0
 10
3435.769271936686
 20
1730.782822215922
 30
0.0
 41
1.0
 10
3435.991641777343
 20
1730.782850000538
 30
0.0
 41
1.0
 10
3436.15137298609
 20
1730.782847998484
 30
0.0
 41
1.0
 10
3436.253186202881
 20
1730.782840306363
 30
0.0
 41
1.0
 10
3436.245232101423
 20
1730.781083208236
 30
0.0
 41
1.0
 10
3436.237277999965
 20
1730.779326110108
 30
0.0
 41
1.0
 10
3436.229323898507
 20
1730.77756901198
 30
0.0
 41
1.0
  0
SPLINE
  5
96
330
1F
100
AcDbEntity
  8
Default
100
AcDbSpline
210
0.0
220
0.0
230
1.0
 70
    12
 71
     3
 72
    11
 73
     7
 74
     0
 42
0.000000001
 43
0.0000000001
 40
924.7269617647265
 40
924.7269617647265
 40
924.7269617647265
 40
924.7269617647265
 40
925.7269617647265
 40
925.7269617647265
 40
925.7269617647265
 40
926.724897246717
 40
926.724897246717
 40
926.724897246717
 40
926.724897246717
 10
3436.188429340949
 20
1730.782844090659
 30
0.0
 41
1.0
 10
3436.197766929627
 20
1730.782021511882
 30
0.0
 41
1.0
 10
3436.207104518306
 20
1730.781198933105
 30
0.0
 41
1.0
 10
3436.216442106986
 20
1730.780376354328
 30
0.0
 41
1.0
 10
3437.513604274898
 20
1730.497684441415
 30
0.0
 41
1.0
 10
3438.810766442812
 20
1730.214992528501
 30
0.0
 41
1.0
 10
3440.107928610724
 20
1729.932300615587
 30
0.0
 41
1.0
  0
SPLINE
  5
97
330
1F
100
AcDbEntity
  8
Default
100
AcDbSpline
210
0.0
220
0.0
230
1.0
 70
    28
 71
     3
 72
    12
 73
     8
 74
     0
 42
0.000000001
 43
0.0000000001
 40
0.0
 40
0.0
 40
0.0
 40
0.0
 40
122.1301783704886
 40
244.2603858590778
 40
366.3905933476771
 40
488.5208008362692
 40
732.781216163302
 40
732.781216163302
 40
732.781216163302
 40
732.781216163302
 10
2701.787535696826
 20
1182.782845776223
 30
0.0
 41
1.0
 10
2821.180256893531
 20
1182.782845776166
 30
0.0
 41
1.0
 10
3059.96553469517
 20
1182.782845776182
 30
0.0
 41
1.0
 10
3137.989622073043
 20
1182.782845776183
 30
0.0
 41
1.0
 10
3194.644241011172
 20
1182.782845776185
 30
0.0
 41
1.0
 10
3228.241948556276
 20
1182.78284577619
 30
0.0
 41
1.0
 10
3242.245322643081
 20
1182.782845776195
 30
0.0
 41
1.0
 10
3242.245322616339
 20
1182.782845776199
 30
0.0
 41
1.0
  0
SPLINE
  5
98
330
1F
100
AcDbEntity
  8
Default
100
AcDbSpline
210
0.0
220
0.0
230
1.0
 70
    28
 71
     3
 72
    12
 73
     8
 74
     0
 42
0.000000001
 43
0.0000000001
 40
732.7812299723647
 40
732.7812299723647
 40
732.7812299723647
 40
732.7812299723647
 40
977.0416599087607
 40
1099.171867397353
 40
1221.302074885952
 40
1343.432282374541
 40
1465.56246074503
 40
1465.56246074503
 40
1465.56246074503
 40
1465.56246074503
 10
2161.329748777314
 20
1182.782845776199
 30
0.0
 41
1.0
 10
2161.329747633837
 20
1182.782845776195
 30
0.0
 41
1.0
 10
2175.333121832626
 20
1182.782845776189
 30
0.0
 41
1.0
 10
2208.930830382481
 20
1182.782845776185
 30
0.0
 41
1.0
 10
2265.585449320609
 20
1182.782845776184
 30
0.0
 41
1.0
 10
2343.609536698485
 20
1182.782845776182
 30
0.0
 41
1.0
 10
2582.394814500123
 20
1182.782845776165
 30
0.0
 41
1.0
 10
2701.787535696826
 20
1182.782845776223
 30
0.0
 41
1.0
  0
SPLINE
  5
99
330
1F
100
AcDbEntity
  8
Default
100
AcDbSpline
210
0.0
220
0.0
230
1.0
 70
    12
 71
     2
 72
   274
 73
   271
 74
     0
 42
0.000000001
 43
0.0000000001
 40
0.0
 40
0.0
 40
0.0
 40
60.30475762082946
 40
60.30475762082946
 40
120.6067083987254
 40
120.6067083987254
 40
180.9062285591386
 40
180.9062285591386
 40
241.2066608822566
 40
241.2066608822566
 40
291.4582140939148
 40
291.4582140939148
 40
331.6636331285668
 40
331.6636331285668
 40
361.8215284054571
 40
361.8215284054571
 40
391.9852096238604
 40
391.9852096238604
 40
417.132563374392
 40
417.132563374392
 40
437.2609444771393
 40
437.2609444771393
 40
452.3678613048187
 40
452.3678613048187
 40
467.4882197632274
 40
467.4882197632274
 40
480.0960006706685
 40
480.0960006706685
 40
490.1904876012519
 40
490.1904876012519
 40
497.7691461640312
 40
497.7691461640312
 40
505.3572464221637
 40
505.3572464221637
 40
512.956051536576
 40
512.956051536576
 40
520.5451598218878
 40
520.5451598218878
 40
530.639452086863
 40
530.639452086863
 40
540.7078163195893
 40
540.7078163195893
 40
550.7526885538485
 40
550.7526885538485
 40
560.7774164512091
 40
560.7774164512091
 40
573.3040627988839
 40
573.3040627988839
 40
585.8442855114731
 40
585.8442855114731
 40
595.8968302783177
 40
595.8968302783177
 40
603.4539078158143
 40
603.4539078158143
 40
611.0307219964733
 40
611.0307219964733
 40
618.6274734064234
 40
618.6274734064234
 40
626.2220271016939
 40
626.2220271016939
 40
633.8142335122691
 40
633.8142335122691
 40
641.4089096223971
 40
641.4089096223971
 40
647.7437476538181
 40
647.7437476538181
 40
652.8180017546182
 40
652.8180017546182
 40
657.8995736633746
 40
657.8995736633746
 40
664.2503181196827
 40
664.2503181196827
 40
671.8674468615082
 40
671.8674468615082
 40
679.4860308672542
 40
679.4860308672542
 40
685.838953952108
 40
685.838953952108
 40
690.9271487390171
 40
690.9271487390171
 40
694.7485875787955
 40
694.7485875787955
 40
698.5661574800614
 40
698.5661574800614
 40
703.6411144039725
 40
703.6411144039725
 40
709.9645605428474
 40
709.9645605428474
 40
717.5293175230142
 40
717.5293175230142
 40
727.5897306957672
 40
727.5897306957672
 40
740.1487691521258
 40
740.1487691521258
 40
752.7180826902315
 40
752.7180826902315
 40
762.7976692572976
 40
762.7976692572976
 40
769.113602754771
 40
769.113602754771
 40
774.1723792354873
 40
774.1723792354873
 40
779.2267883131878
 40
779.2267883131878
 40
788.0648117412402
 40
788.0648117412402
 40
798.1603941804048
 40
798.1603941804048
 40
808.259672436454
 40
808.259672436454
 40
818.3633830736226
 40
818.3633830736226
 40
830.9757547590104
 40
830.9757547590104
 40
846.1049193811579
 40
846.1049193811579
 40
861.2374529498474
 40
861.2374529498474
 40
876.3528808161488
 40
876.3528808161488
 40
888.9465471121274
 40
888.9465471121274
 40
899.022177959736
 40
899.022177959736
 40
909.0903919253054
 40
909.0903919253054
 40
919.1544270351432
 40
919.1544270351432
 40
929.2177513110841
 40
929.2177513110841
 40
939.280132211226
 40
939.280132211226
 40
951.8425030543609
 40
951.8425030543609
 40
966.9019064431905
 40
966.9019064431905
 40
981.9589924170196
 40
981.9589924170196
 40
997.0269979055276
 40
997.0269979055276
 40
1009.599376940524
 40
1009.599376940524
 40
1019.668792591505
 40
1019.668792591505
 40
1029.737394602661
 40
1029.737394602661
 40
1039.807649078271
 40
1039.807649078271
 40
1049.883634598977
 40
1049.883634598977
 40
1059.967014703001
 40
1059.967014703001
 40
1072.566966044567
 40
1072.566966044567
 40
1087.69329643644
 40
1087.69329643644
 40
1102.836804763076
 40
1102.836804763076
 40
1115.45094277706
 40
1115.45094277706
 40
1125.545542080562
 40
1125.545542080562
 40
1133.124009292377
 40
1133.124009292377
 40
1140.707054074779
 40
1140.707054074779
 40
1148.284341955475
 40
1148.284341955475
 40
1155.859122910757
 40
1155.859122910757
 40
1163.436715099286
 40
1163.436715099286
 40
1171.024669678075
 40
1171.024669678075
 40
1178.625897479403
 40
1178.625897479403
 40
1186.222805491801
 40
1186.222805491801
 40
1193.815275813659
 40
1193.815275813659
 40
1201.409521100236
 40
1201.409521100236
 40
1207.744568386136
 40
1207.744568386136
 40
1212.819710658505
 40
1212.819710658505
 40
1216.631933324535
 40
1216.631933324535
 40
1220.440583531095
 40
1220.440583531095
 40
1225.504766837268
 40
1225.504766837268
 40
1231.81612756784
 40
1231.81612756784
 40
1241.881436015741
 40
1241.881436015741
 40
1251.923694941345
 40
1251.923694941345
 40
1261.961706830749
 40
1261.961706830749
 40
1269.493066052955
 40
1269.493066052955
 40
1277.033921902673
 40
1277.033921902673
 40
1283.329841515079
 40
1283.329841515079
 40
1288.37644977095
 40
1288.37644977095
 40
1293.43102592296
 40
1293.43102592296
 40
1299.739977951908
 40
1299.739977951908
 40
1307.298043147537
 40
1307.298043147537
 40
1317.361846526832
 40
1317.361846526832
 40
1327.419713296797
 40
1327.419713296797
 40
1337.480883303664
 40
1337.480883303664
 40
1345.03392027651
 40
1345.03392027651
 40
1352.594782388045
 40
1352.594782388045
 40
1360.148753063031
 40
1360.148753063031
 40
1367.695094486725
 40
1367.695094486725
 40
1375.237245272116
 40
1375.237245272116
 40
1382.783358937693
 40
1382.783358937693
 40
1390.337513696123
 40
1390.337513696123
 40
1397.900305991848
 40
1397.900305991848
 40
1405.4726676754
 40
1405.4726676754
 40
1413.046769229169
 40
1413.046769229169
 40
1423.124196320262
 40
1423.124196320262
 40
1435.696565891226
 40
1435.696565891226
 40
1450.762142132324
 40
1450.762142132324
 40
1465.817970437494
 40
1465.817970437494
 40
1480.860335572292
 40
1480.860335572292
 40
1495.888987178789
 40
1495.888987178789
 40
1515.915085965471
 40
1515.915085965471
 40
1540.935619457484
 40
1540.935619457484
 40
1570.947654856302
 40
1570.947654856302
 40
1600.954588185258
 40
1600.954588185258
 40
1640.958874707066
 40
1640.958874707066
 40
1690.960541302565
 40
1690.960541302565
 40
1750.960215694151
 40
1750.960215694151
 40
1810.959838903851
 40
1810.959838903851
 40
1870.961087097941
 40
1870.961087097941
 40
1930.963132759355
 40
1930.963132759355
 40
1930.963132759355
 10
2701.787497692394
 20
0.0
 30
0.0
 41
1.0
 10
2671.634771879004
 20
0.0033155699377918
 30
0.0
 41
0.9999827287523503
 10
2641.484168120671
 20
0.361055669015762
 30
0.0
 41
1.0
 10
2611.335010774018
 20
0.7174226186282358
 30
0.0
 41
0.9999856705166065
 10
2581.191396988702
 20
1.396564781750256
 30
0.0
 41
1.0
 10
2551.048998049062
 20
2.074442957437938
 30
0.0
 41
0.999987046732388
 10
2520.915061349247
 20
3.059121396821926
 30
0.0
 41
1.0
 10
2490.780613507866
 20
4.042190346215329
 30
0.0
 41
0.9999869341688592
 10
2460.657791145852
 20
5.333292282790959
 30
0.0
 41
1.0
 10
2435.55484088155
 20
6.408138142659781
 30
0.0
 41
0.9999895984093193
 10
2410.462739779209
 20
7.711927951040038
 30
0.0
 41
1.0
 10
2390.386959833097
 20
8.754352901370859
 30
0.0
 41
0.9999913511263819
 10
2370.320545329368
 20
9.963732571410968
 30
0.0
 41
1.0
 10
2355.268843452678
 20
10.87092437806059
 30
0.0
 41
0.9999931903442309
 10
2340.224247370278
 20
11.88918518760334
 30
0.0
 41
1.0
 10
2325.1766004852
 20
12.90583918433538
 30
0.0
 41
0.9999889676552932
 10
2310.13916857914
 20
14.06381318993679
 30
0.0
 41
1.0
 10
2297.602352413368
 20
15.02758102500614
 30
0.0
 41
0.9999845453518382
 10
2285.077027395221
 20
16.13068628020232
 30
0.0
 41
1.0
 10
2275.05151295761
 20
17.01370756285547
 30
0.0
 41
0.9999797498233874
 10
2265.038049376114
 20
18.02425861372044
 30
0.0
 41
1.0
 10
2257.522717513872
 20
18.78325786475738
 30
0.0
 41
0.999979508997754
 10
2250.017719182793
 20
19.63841452480586
 30
0.0
 41
1.0
 10
2242.505886515914
 20
20.49360414250543
 30
0.0
 41
0.9999649750195192
 10
2235.009420776242
 20
21.47441029630916
 30
0.0
 41
1.0
 10
2228.758663005255
 20
22.29244827377773
 30
0.0
 41
0.9999599157173578
 10
2222.52355562574
 20
23.22228417868441
 30
0.0
 41
1.0
 10
2217.531444017455
 20
23.96713432908355
 30
0.0
 41
0.9999613324034514
 10
2212.553204381441
 20
24.79966672037661
 30
0.0
 41
1.0
 10
2208.815766409896
 20
25.42507994885683
 30
0.0
 41
0.9999703388728072
 10
2205.088405484218
 20
26.10798904034973
 30
0.0
 41
1.0
 10
2201.356370123161
 20
26.79170253249826
 30
0.0
 41
0.9999616707335414
 10
2197.636878849879
 20
27.5406596364148
 30
0.0
 41
1.0
 10
2193.912119385856
 20
28.29069552542446
 30
0.0
 41
0.9999518347585341
 10
2190.202799552438
 20
29.11369812143645
 30
0.0
 41
1.0
 10
2186.498205660861
 20
29.93573847590023
 30
0.0
 41
0.9999413997505087
 10
2182.812277483423
 20
30.83779153234392
 30
0.0
 41
1.0
 10
2177.909372564452
 20
32.03751807197431
 30
0.0
 41
0.999878236784143
 10
2173.046294040303
 20
33.38965995887562
 30
0.0
 41
1.0
 10
2168.195905270946
 20
34.73916032015114
 30
0.0
 41
0.9998688364366341
 10
2163.391768352859
 20
36.24504574449833
 30
0.0
 41
1.0
 10
2158.599294580829
 20
37.74873284995582
 30
0.0
 41
0.9998806358402912
 10
2153.855568382156
 20
39.39977540504936
 30
0.0
 41
1.0
 10
2149.121473259066
 20
41.04760184119383
 30
0.0
 41
0.9999045969761894
 10
2144.43470290654
 20
42.82557041819312
 30
0.0
 41
1.0
 10
2138.57731650648
 20
45.04530880310208
 30
0.0
 41
0.999866256432363
 10
2132.795659102903
 20
47.45542324119418
 30
0.0
 41
1.0
 10
2127.007821654384
 20
49.86839642925756
 30
0.0
 41
0.9998625647077597
 10
2121.303162488514
 20
52.47192590634142
 30
0.0
 41
1.0
 10
2116.730220780048
 20
54.55871280283999
 30
0.0
 41
0.9999091278868906
 10
2112.215199827506
 20
56.76802518874946
 30
0.0
 41
1.0
 10
2108.821107351179
 20
58.42890281075708
 30
0.0
 41
0.9999462655337337
 10
2105.462177775653
 20
60.15978995895618
 30
0.0
 41
1.0
 10
2102.094439653464
 20
61.89514507207746
 30
0.0
 41
0.9999430882376831
 10
2098.764493881816
 20
63.70195955789021
 30
0.0
 41
1.0
 10
2095.425766717207
 20
65.51351300323434
 30
0.0
 41
0.9999393416693536
 10
2092.127752880335
 20
67.39816939017237
 30
0.0
 41
1.0
 10
2088.830669903727
 20
69.28226447033377
 30
0.0
 41
0.9999345221351504
 10
2085.577568532865
 20
71.24132084946404
 30
0.0
 41
1.0
 10
2082.325423105491
 20
73.19971723344453
 30
0.0
 41
0.9999288739703633
 10
2079.120914119539
 20
75.23512589917443
 30
0.0
 41
1.0
 10
2075.915311820142
 20
77.27115105581707
 30
0.0
 41
0.9999215617778638
 10
2072.761712811012
 20
79.38683010283823
 30
0.0
 41
1.0
 10
2070.131313729527
 20
81.15158187572175
 30
0.0
 41
0.9999398310299135
 10
2067.540262968346
 20
82.97361483391743
 30
0.0
 41
1.0
 10
2065.46486723235
 20
84.4331039161206
 30
0.0
 41
0.9999578043085211
 10
2063.416635495123
 20
85.93047581136858
 30
0.0
 41
1.0
 10
2061.36543610267
 20
87.42999904753494
 30
0.0
 41
0.9999540405759297
 10
2059.343365290948
 20
88.96857583007804
 30
0.0
 41
1.0
 10
2056.816123980257
 20
90.89136247041185
 30
0.0
 41
0.9999205437208287
 10
2054.338158542156
 20
92.87724876984846
 30
0.0
 41
1.0
 10
2051.365719452845
 20
95.25890888580709
 30
0.0
 41
0.99986887179809
 10
2048.471965491585
 20
97.73557742626843
 30
0.0
 41
1.0
 10
2045.578022010432
 20
100.2131976535627
 30
0.0
 41
0.9998550326705565
 10
2042.770116424671
 20
102.7879164895248
 30
0.0
 41
1.0
 10
2040.428857260229
 20
104.9349617932289
 30
0.0
 41
0.9998966868152812
 10
2038.15028302964
 20
107.1484200573343
 30
0.0
 41
1.0
 10
2036.325367128569
 20
108.9211834636399
 30
0.0
 41
0.9999331924265549
 10
2034.541918921564
 20
110.7356587689702
 30
0.0
 41
1.0
 10
2033.202510027972
 20
112.0983825533653
 30
0.0
 41
0.9999622855686052
 10
2031.886972530163
 20
113.4841651440494
 30
0.0
 41
1.0
 10
2030.572775397297
 20
114.8685525716807
 30
0.0
 41
0.9999624003433968
 10
2029.282784919451
 20
116.275523509861
 30
0.0
 41
1.0
 10
2027.567888026927
 20
118.1459494391541
 30
0.0
 41
0.9999338950309963
 10
2025.896454298009
 20
120.0553142023135
 30
0.0
 41
1.0
 10
2023.813809869009
 20
122.4344807064964
 30
0.0
 41
0.9998988549881206
 10
2021.799676587999
 20
124.8719195669812
 30
0.0
 41
1.0
 10
2019.390172014206
 20
127.7879726114284
 30
0.0
 41
0.9998589731131593
 10
2017.079956351055
 20
130.7832991777465
 30
0.0
 41
1.0
 10
2014.007656399248
 20
134.7672619750239
 30
0.0
 41
0.9997627020866831
 10
2011.111803831417
 20
138.88126543508
 30
0.0
 41
1.0
 10
2007.497127655271
 20
144.0178264163032
 30
0.0
 41
0.9996619587184298
 10
2004.154342909544
 20
149.3353383077746
 30
0.0
 41
1.0
 10
2000.80921073897
 20
154.6572355039584
 30
0.0
 41
0.999704110316822
 10
1997.726867812385
 20
160.135525482436
 30
0.0
 41
1.0
 10
1995.254906147451
 20
164.5280708789734
 30
0.0
 41
0.9998366499067859
 10
1992.943316303819
 20
169.0070888437029
 30
0.0
 41
1.0
 10
1991.494594170879
 20
171.8132795098077
 30
0.0
 41
0.9999437593517534
 10
1990.105717097446
 20
174.6495662280184
 30
0.0
 41
1.0
 10
1988.993219741974
 20
176.9212249891642
 30
0.0
 41
0.9999672922156149
 10
1987.917612733966
 20
179.2105815488435
 30
0.0
 41
1.0
 10
1986.842834088487
 20
181.4979115541154
 30
0.0
 41
0.9999688929386568
 10
1985.804270826799
 20
183.8019111290426
 30
0.0
 41
1.0
 10
1983.988338844753
 20
187.8308635688299
 30
0.0
 41
0.9999077497708487
 10
1982.282515575512
 20
191.9076556532516
 30
0.0
 41
1.0
 10
1980.334027518137
 20
196.5646386082548
 30
0.0
 41
0.9998852292613179
 10
1978.527526099918
 20
201.2785169031305
 30
0.0
 41
1.0
 10
1976.720372614758
 20
205.994102188621
 30
0.0
 41
0.9998913933900013
 10
1975.052983348453
 20
210.7608999961928
 30
0.0
 41
1.0
 10
1973.384916779611
 20
215.5297853664918
 30
0.0
 41
0.9998979928313403
 10
1971.85374482584
 20
220.3443701046732
 30
0.0
 41
1.0
 10
1969.942655063817
 20
226.354657850068
 30
0.0
 41
0.9998521146174883
 10
1968.239387196655
 20
232.4271121671994
 30
0.0
 41
1.0
 10
1966.196498753525
 20
239.7116302326256
 30
0.0
 41
0.9998074972906705
 10
1964.440981562805
 20
247.0706896854151
 30
0.0
 41
1.0
 10
1962.685200050982
 20
254.4313073932553
 30
0.0
 41
0.9998288275322849
 10
1961.202942948401
 20
261.8518448158464
 30
0.0
 41
1.0
 10
1959.722396762002
 20
269.2638989741268
 30
0.0
 41
0.9998487147155683
 10
1958.500556463911
 20
276.7229652790543
 30
0.0
 41
1.0
 10
1957.482180203783
 20
282.9372987271873
 30
0.0
 41
0.9999068957949425
 10
1956.633762803084
 20
289.1771078850039
 30
0.0
 41
1.0
 10
1955.954790351818
 20
294.1691418023399
 30
0.0
 41
0.9999461619557505
 10
1955.379558908724
 20
299.1741907539776
 30
0.0
 41
1.0
 10
1954.804747099342
 20
304.1755388254779
 30
0.0
 41
0.9999509338241042
 10
1954.32913050818
 20
309.1872930100639
 30
0.0
 41
1.0
 10
1953.853694486326
 20
314.1969502955868
 30
0.0
 41
0.9999554295701608
 10
1953.472934748622
 20
319.2146915754269
 30
0.0
 41
1.0
 10
1953.092190815892
 20
324.2320638443849
 30
0.0
 41
0.9999595197491613
 10
1952.801794642053
 20
329.2554750847514
 30
0.0
 41
1.0
 10
1952.511415363645
 20
334.2784019217786
 30
0.0
 41
0.9999633566453407
 10
1952.307074906725
 20
339.3055640549431
 30
0.0
 41
1.0
 10
1952.052234235372
 20
345.5817911488971
 30
0.0
 41
0.9999490570043503
 10
1951.924140127676
 20
351.8618836802402
 30
0.0
 41
1.0
 10
1951.770673508963
 20
359.3903423077114
 30
0.0
 41
0.9999360634098401
 10
1951.787497692394
 20
366.9203461759346
 30
0.0
 41
1.0
 10
1951.802109273817
 20
374.4492021005688
 30
0.0
 41
0.9999348288703933
 10
1951.988613225655
 20
381.9757618265099
 30
0.0
 41
1.0
 10
1952.175335977628
 20
389.5078349739145
 30
0.0
 41
0.9999234509150257
 10
1952.548376691181
 20
397.0329816110233
 30
0.0
 41
1.0
 10
1952.859849190904
 20
403.311706187876
 30
0.0
 41
0.9999389137945914
 10
1953.310034519467
 20
409.58201165093
 30
0.0
 41
1.0
 10
1953.670804392666
 20
414.6039240094747
 30
0.0
 41
0.9999563382704755
 10
1954.125362688353
 20
419.6182171195884
 30
0.0
 41
1.0
 10
1954.579882561113
 20
424.6321200960466
 30
0.0
 41
0.9999519222362335
 10
1955.132640704463
 20
429.6361454563971
 30
0.0
 41
1.0
 10
1955.685475575296
 20
434.6410093219359
 30
0.0
 41
0.999947274919071
 10
1956.340975904032
 20
439.6334644320005
 30
0.0
 41
1.0
 10
1956.996835044757
 20
444.6287799805634
 30
0.0
 41
0.9999421591050406
 10
1957.759989380631
 20
449.60883260095
 30
0.0
 41
1.0
 10
1958.523709923241
 20
454.592557156669
 30
0.0
 41
0.9999368349887866
 10
1959.399259432973
 20
459.5578559966673
 30
0.0
 41
1.0
 10
1960.493094303767
 20
465.7626100102405
 30
0.0
 41
0.9998912911492089
 10
1961.769408020593
 20
471.9324131181004
 30
0.0
 41
1.0
 10
1963.301187159855
 20
479.3397401784907
 30
0.0
 41
0.999824689610125
 10
1965.109233940219
 20
486.6845212066142
 30
0.0
 41
1.0
 10
1966.919446893893
 20
494.0377259369865
 30
0.0
 41
0.9998034352273194
 10
1969.019756303188
 20
501.3133833732358
 30
0.0
 41
1.0
 10
1970.7696155537
 20
507.3735080662954
 30
0.0
 41
0.999849211122332
 10
1972.72885995581
 20
513.3692132012095
 30
0.0
 41
1.0
 10
1974.296911734587
 20
518.1671266819352
 30
0.0
 41
0.9998961962706591
 10
1976.002556862841
 20
522.9178671343192
 30
0.0
 41
1.0
 10
1977.283143315102
 20
526.4843179530937
 30
0.0
 41
0.9999382748899975
 10
1978.642659838735
 20
530.0214337168797
 30
0.0
 41
1.0
 10
1980.003025675761
 20
533.5606822552597
 30
0.0
 41
0.9999356577869134
 10
1981.443332825135
 20
537.0681586618002
 30
0.0
 41
1.0
 10
1982.882553288904
 20
540.572976707837
 30
0.0
 41
0.9999330111860157
 10
1984.402516955291
 20
544.0435408596747
 30
0.0
 41
1.0
 10
1985.922023877474
 20
547.5129422298143
 30
0.0
 41
0.9999309619884106
 10
1987.522639088085
 20
550.9456784709566
 30
0.0
 41
1.0
 10
1989.123527461295
 20
554.3798525978411
 30
0.0
 41
0.999925833916653
 10
1990.807583947389
 20
557.7740165993125
 30
0.0
 41
1.0
 10
1992.493855527902
 20
561.1728942104522
 30
0.0
 41
0.9999157472088764
 10
1994.267791003544
 20
564.5268521390817
 30
0.0
 41
1.0
 10
1996.044913376343
 20
567.8866633798111
 30
0.0
 41
0.9999050209906449
 10
1997.91396299922
 20
571.1962175806757
 30
0.0
 41
1.0
 10
1999.78201534874
 20
574.503884752318
 30
0.0
 41
0.9998945514953069
 10
2001.745336970842
 20
577.755907185682
 30
0.0
 41
1.0
 10
2003.707550751554
 20
581.0060349182667
 30
0.0
 41
0.9998849103247296
 10
2005.767466758407
 20
584.195134986319
 30
0.0
 41
1.0
 10
2007.827914182313
 20
587.3849761727324
 30
0.0
 41
0.9998756968595181
 10
2009.987911629137
 20
590.5082663307127
 30
0.0
 41
1.0
 10
2011.789821165093
 20
593.1135596525124
 30
0.0
 41
0.999908422053555
 10
2013.661580124831
 20
595.6691319299145
 30
0.0
 41
1.0
 10
2015.161097688212
 20
597.7163837308519
 30
0.0
 41
0.9999387881082714
 10
2016.705548393644
 20
599.7299539128469
 30
0.0
 41
1.0
 10
2017.865672883004
 20
601.2424164288562
 30
0.0
 41
0.9999646450971267
 10
2019.051068516042
 20
602.7351551489
 30
0.0
 41
1.0
 10
2020.2353626907
 20
604.226488543436
 30
0.0
 41
0.999964039526649
 10
2021.444780249389
 20
605.697521226459
 30
0.0
 41
1.0
 10
2023.052905407172
 20
607.6535310721204
 30
0.0
 41
0.9999353285898648
 10
2024.705101985816
 20
609.5724598110091
 30
0.0
 41
1.0
 10
2026.764234375725
 20
611.9640380312433
 30
0.0
 41
0.9998980373543034
 10
2028.890822912722
 20
614.2958385752406
 30
0.0
 41
1.0
 10
2032.282724583388
 20
618.014902032522
 30
0.0
 41
0.9997388696307048
 10
2035.841012018352
 20
621.5751015315579
 30
0.0
 41
1.0
 10
2039.391093134514
 20
625.127199926278
 30
0.0
 41
0.9997401537066295
 10
2043.09938494638
 20
628.5137986292781
 30
0.0
 41
1.0
 10
2046.806731255581
 20
631.8982166920285
 30
0.0
 41
0.9997535088851757
 10
2050.660666242705
 20
635.1147190462706
 30
0.0
 41
1.0
 10
2053.552014682535
 20
637.5277558530183
 30
0.0
 41
0.9998783985201086
 10
2056.517207852269
 20
639.8494517627784
 30
0.0
 41
1.0
 10
2059.485966436155
 20
642.174230795073
 30
0.0
 41
0.9998945879548939
 10
2062.520974991829
 20
644.4118295404639
 30
0.0
 41
1.0
 10
2065.054758304027
 20
646.2801062962175
 30
0.0
 41
0.9999345415245336
 10
2067.630627960671
 20
648.0899160710968
 30
0.0
 41
1.0
 10
2069.695258774389
 20
649.5406711776523
 30
0.0
 41
0.9999614770172586
 10
2071.785038471981
 20
650.954959547003
 30
0.0
 41
1.0
 10
2073.87810905254
 20
652.3714855162924
 30
0.0
 41
0.9999641575045549
 10
2075.994865078156
 20
653.7523671929379
 30
0.0
 41
1.0
 10
2078.636993920976
 20
655.4758993248163
 30
0.0
 41
0.9999480796846919
 10
2081.313698128842
 20
657.1452292548378
 30
0.0
 41
1.0
 10
2084.520419615551
 20
659.1450609817059
 30
0.0
 41
0.9999316156068607
 10
2087.773035314377
 20
661.0693480561438
 30
0.0
 41
1.0
 10
2092.104214947196
 20
663.6315060900293
 30
0.0
 41
0.9998893469928813
 10
2096.509698268142
 20
666.0636836146387
 30
0.0
 41
1.0
 10
2100.912472137636
 20
668.4945613263263
 30
0.0
 41
0.9998987920419551
 10
2105.382624591266
 20
670.7991917167346
 30
0.0
 41
1.0
 10
2109.854166802133
 20
673.104683045461
 30
0.0
 41
0.9999053374290177
 10
2114.387453469183
 20
675.2862632078066
 30
0.0
 41
1.0
 10
2117.790472838274
 20
676.9241042986181
 30
0.0
 41
0.9999488685331382
 10
2121.225919483506
 20
678.4927886559486
 30
0.0
 41
1.0
 10
2124.664914844274
 20
680.0631135318203
 30
0.0
 41
0.9999501311492243
 10
2128.134587553085
 20
681.5644398124479
 30
0.0
 41
1.0
 10
2131.60108362282
 20
683.0644268424772
 30
0.0
 41
0.9999506965640227
 10
2135.096684273106
 20
684.4952770042541
 30
0.0
 41
1.0
 10
2138.588751151177
 20
685.9246875770029
 30
0.0
 41
0.9999510923007594
 10
2142.108407379465
 20
687.2847484951512
 30
0.0
 41
1.0
 10
2145.626044651309
 20
688.6442292000372
 30
0.0
 41
0.9999498936452269
 10
2149.170193728319
 20
689.9330143191116
 30
0.0
 41
1.0
 10
2152.71599087874
 20
691.2231270938843
 30
0.0
 41
0.999941497316151
 10
2156.288866304606
 20
692.4362345066108
 30
0.0
 41
1.0
 10
2159.865722516196
 20
693.6502109776975
 30
0.0
 41
0.9999303123021883
 10
2163.470242984917
 20
694.7794015822089
 30
0.0
 41
1.0
 10
2167.078998600911
 20
695.9095565228708
 30
0.0
 41
0.9999260266055442
 10
2170.71417681949
 20
696.9515961598485
 30
0.0
 41
1.0
 10
2174.354038041415
 20
697.9946440378521
 30
0.0
 41
0.9999281611459601
 10
2178.017856241232
 20
698.9501411803756
 30
0.0
 41
1.0
 10
2181.682561103182
 20
699.9056123818842
 30
0.0
 41
0.9999355072589796
 10
2185.36802177076
 20
700.7776024104056
 30
0.0
 41
1.0
 10
2190.271858061727
 20
701.9370000481412
 30
0.0
 41
0.9999060996496414
 10
2195.205625683852
 20
702.9615732772825
 30
0.0
 41
1.0
 10
2201.361165175016
 20
704.2386740272299
 30
0.0
 41
0.999894988925846
 10
2207.551130191991
 20
705.3368478938889
 30
0.0
 41
1.0
 10
2214.968726173965
 20
706.6518913947934
 30
0.0
 41
0.9999052065304912
 10
2222.419719258281
 20
707.7621938844565
 30
0.0
 41
1.0
 10
2229.865537836587
 20
708.8727928759505
 30
0.0
 41
0.9999450413866977
 10
2237.333005366967
 20
709.8270324180341
 30
0.0
 41
1.0
 10
2244.793567349598
 20
710.7812908466394
 30
0.0
 41
0.9999680880717976
 10
2252.268423525116
 20
711.6162276110525
 30
0.0
 41
1.0
 10
2259.736323523826
 20
712.4510784790616
 30
0.0
 41
0.9999812178117382
 10
2267.213895799445
 20
713.1943275795968
 30
0.0
 41
1.0
 10
2277.178039676197
 20
714.1840210715035
 30
0.0
 41
0.9999813123765166
 10
2287.153539493927
 20
715.0518112483413
 30
0.0
 41
1.0
 10
2299.616863546672
 20
716.1359393922733
 30
0.0
 41
0.9999855940883438
 10
2312.091107685364
 20
717.0862095878253
 30
0.0
 41
1.0
 10
2327.053730628128
 20
718.2279777569822
 30
0.0
 41
0.999989499622073
 10
2342.0261896505
 20
719.2325625980022
 30
0.0
 41
1.0
 10
2356.995957293225
 20
720.2385706527202
 30
0.0
 41
0.9999933913410618
 10
2371.972643967673
 20
721.1357059483683
 30
0.0
 41
1.0
 10
2391.939111666149
 20
722.3317051004035
 30
0.0
 41
0.99999154322532
 10
2411.914741208571
 20
723.3634369986064
 30
0.0
 41
1.0
 10
2436.882421462091
 20
724.65384206197
 30
0.0
 41
0.999989756554045
 10
2461.860759929339
 20
725.7181774814549
 30
0.0
 41
1.0
 10
2491.83360304503
 20
726.9966177668942
 30
0.0
 41
0.9999870815540472
 10
2521.817893775314
 20
727.9702929710321
 30
0.0
 41
1.0
 10
2551.802105814821
 20
728.9455486384873
 30
0.0
 41
0.9999871676191506
 10
2581.794659998911
 20
729.6169566823889
 30
0.0
 41
1.0
 10
2611.788026731106
 20
730.289594957983
 30
0.0
 41
0.9999857975451933
 10
2641.786859250792
 20
730.6424938635736
 30
0.0
 41
1.0
 10
2671.78613288276
 20
730.996729227486
 30
0.0
 41
0.9999828930052203
 10
2701.787497692395
 20
731.0000000000006
 30
0.0
 41
1.0
  0
SPLINE
  5
9A
330
1F
100
AcDbEntity
  8
Default
100
AcDbSpline
210
0.0
220
0.0
230
1.0
 70
    12
 71
     2
 72
   274
 73
   271
 74
     0
 42
0.000000001
 43
0.0000000001
 40
0.0
 40
0.0
 40
0.0
 40
60.00204566089113
 40
60.00204566089113
 40
120.0032938547219
 40
120.0032938547219
 40
180.0029170643579
 40
180.0029170643579
 40
240.0025914560275
 40
240.0025914560275
 40
290.0042580516735
 40
290.0042580516735
 40
330.0085445736006
 40
330.0085445736006
 40
360.0154779026192
 40
360.0154779026192
 40
390.0275133017002
 40
390.0275133017002
 40
415.0480467942528
 40
415.0480467942528
 40
435.0741455815724
 40
435.0741455815724
 40
450.1027971884465
 40
450.1027971884465
 40
465.1451623243911
 40
465.1451623243911
 40
480.20099062955
 40
480.20099062955
 40
495.2665668706517
 40
495.2665668706517
 40
507.8389364416164
 40
507.8389364416164
 40
517.9163635327081
 40
517.9163635327081
 40
525.4904650864774
 40
525.4904650864774
 40
533.0628267700261
 40
533.0628267700261
 40
540.6256190657578
 40
540.6256190657578
 40
548.1797738241887
 40
548.1797738241887
 40
555.7258874897573
 40
555.7258874897573
 40
563.2680382751528
 40
563.2680382751528
 40
570.8143796988462
 40
570.8143796988462
 40
578.3683503738301
 40
578.3683503738301
 40
585.9292124853746
 40
585.9292124853746
 40
593.4822494582077
 40
593.4822494582077
 40
603.5434194650836
 40
603.5434194650836
 40
613.6012862350477
 40
613.6012862350477
 40
623.6650896143429
 40
623.6650896143429
 40
631.2231548099632
 40
631.2231548099632
 40
637.5321068389232
 40
637.5321068389232
 40
642.5866829909856
 40
642.5866829909856
 40
647.6332912468681
 40
647.6332912468681
 40
653.9292108592633
 40
653.9292108592633
 40
661.4700667089898
 40
661.4700667089898
 40
669.0014259311939
 40
669.0014259311939
 40
679.0394378205968
 40
679.0394378205968
 40
689.0816967462048
 40
689.0816967462048
 40
699.1470051940991
 40
699.1470051940991
 40
705.4583659246745
 40
705.4583659246745
 40
710.5225492308469
 40
710.5225492308469
 40
714.3311994373979
 40
714.3311994373979
 40
718.1434221034136
 40
718.1434221034136
 40
723.2185643757806
 40
723.2185643757806
 40
729.5536116616822
 40
729.5536116616822
 40
737.1478569482571
 40
737.1478569482571
 40
744.7403272701241
 40
744.7403272701241
 40
752.3372352825122
 40
752.3372352825122
 40
759.9384630838422
 40
759.9384630838422
 40
767.526417662632
 40
767.526417662632
 40
775.1040098511589
 40
775.1040098511589
 40
782.6787908064496
 40
782.6787908064496
 40
790.2560786871356
 40
790.2560786871356
 40
797.8391234695394
 40
797.8391234695394
 40
805.4175906813554
 40
805.4175906813554
 40
815.5121899848552
 40
815.5121899848552
 40
828.1263279988483
 40
828.1263279988483
 40
843.2698363254756
 40
843.2698363254756
 40
858.3961667173507
 40
858.3961667173507
 40
870.9961180589168
 40
870.9961180589168
 40
881.0794981629411
 40
881.0794981629411
 40
891.1554836836463
 40
891.1554836836463
 40
901.225738159256
 40
901.225738159256
 40
911.2943401704098
 40
911.2943401704098
 40
921.3637558213996
 40
921.3637558213996
 40
933.9361348563867
 40
933.9361348563867
 40
949.0041403448982
 40
949.0041403448982
 40
964.0612263187273
 40
964.0612263187273
 40
979.1206297075566
 40
979.1206297075566
 40
991.6830005506923
 40
991.6830005506923
 40
1001.745381451019
 40
1001.745381451019
 40
1011.80870572696
 40
1011.80870572696
 40
1021.872740836798
 40
1021.872740836798
 40
1031.940954802367
 40
1031.940954802367
 40
1042.016585649976
 40
1042.016585649976
 40
1054.610251945955
 40
1054.610251945955
 40
1069.725679812256
 40
1069.725679812256
 40
1084.858213380945
 40
1084.858213380945
 40
1099.987378003093
 40
1099.987378003093
 40
1112.59974968848
 40
1112.59974968848
 40
1122.70346032565
 40
1122.70346032565
 40
1132.802738581699
 40
1132.802738581699
 40
1142.898321020864
 40
1142.898321020864
 40
1151.736344448917
 40
1151.736344448917
 40
1156.790753526629
 40
1156.790753526629
 40
1161.849530007408
 40
1161.849530007408
 40
1168.165463504881
 40
1168.165463504881
 40
1178.245050071948
 40
1178.245050071948
 40
1190.814363610054
 40
1190.814363610054
 40
1203.373402066412
 40
1203.373402066412
 40
1213.433815239165
 40
1213.433815239165
 40
1220.998572219332
 40
1220.998572219332
 40
1227.322018358206
 40
1227.322018358206
 40
1232.396975282118
 40
1232.396975282118
 40
1236.214545183388
 40
1236.214545183388
 40
1240.035984023166
 40
1240.035984023166
 40
1245.124178810075
 40
1245.124178810075
 40
1251.477101894928
 40
1251.477101894928
 40
1259.095685900674
 40
1259.095685900674
 40
1266.7128146425
 40
1266.7128146425
 40
1273.063559098808
 40
1273.063559098808
 40
1278.145131007564
 40
1278.145131007564
 40
1283.219385108365
 40
1283.219385108365
 40
1289.554223139785
 40
1289.554223139785
 40
1297.148899249914
 40
1297.148899249914
 40
1304.741105660489
 40
1304.741105660489
 40
1312.335659355759
 40
1312.335659355759
 40
1319.932410765709
 40
1319.932410765709
 40
1327.509224946368
 40
1327.509224946368
 40
1335.066302483865
 40
1335.066302483865
 40
1345.118847250709
 40
1345.118847250709
 40
1357.6590699633
 40
1357.6590699633
 40
1370.185716310975
 40
1370.185716310975
 40
1380.210444208335
 40
1380.210444208335
 40
1390.255316442593
 40
1390.255316442593
 40
1400.32368067532
 40
1400.32368067532
 40
1410.417972940295
 40
1410.417972940295
 40
1418.007081225607
 40
1418.007081225607
 40
1425.60588634002
 40
1425.60588634002
 40
1433.193986598151
 40
1433.193986598151
 40
1440.772645160691
 40
1440.772645160691
 40
1450.867132091274
 40
1450.867132091274
 40
1463.474912998715
 40
1463.474912998715
 40
1478.595271455732
 40
1478.595271455732
 40
1493.70218828295
 40
1493.70218828295
 40
1513.83056938494
 40
1513.83056938494
 40
1538.977923134826
 40
1538.977923134826
 40
1569.141604352933
 40
1569.141604352933
 40
1599.299499629756
 40
1599.299499629756
 40
1639.504918664274
 40
1639.504918664274
 40
1689.756471875785
 40
1689.756471875785
 40
1750.056904198798
 40
1750.056904198798
 40
1810.35642435929
 40
1810.35642435929
 40
1870.658375137433
 40
1870.658375137433
 40
1930.963132758833
 40
1930.963132758833
 40
1930.963132758833
 10
2701.787497692394
 20
731.0000000000009
 30
0.0
 41
1.0
 10
2731.788862501224
 20
730.9967290919792
 30
0.0
 41
0.9999828930316397
 10
2761.788136134003
 20
730.6424938635744
 30
0.0
 41
1.0
 10
2791.786968652494
 20
730.2895948884658
 30
0.0
 41
0.9999857975575448
 10
2821.780335385872
 20
729.616956682389
 30
0.0
 41
1.0
 10
2851.772889569351
 20
728.945548616023
 30
0.0
 41
0.9999871676229455
 10
2881.75710160948
 20
727.9702929710337
 30
0.0
 41
1.0
 10
2911.741392340821
 20
726.9966177951895
 30
0.0
 41
0.9999870815492498
 10
2941.714235455444
 20
725.7181774814561
 30
0.0
 41
1.0
 10
2966.692573924877
 20
724.6538421082537
 30
0.0
 41
0.9999897565456567
 10
2991.660254176219
 20
723.3634369986074
 30
0.0
 41
1.0
 10
3011.635883721133
 20
722.3317051451044
 30
0.0
 41
0.999991543216115
 10
3031.602351417112
 20
721.1357059483701
 30
0.0
 41
1.0
 10
3046.5790380932
 20
720.2385706785079
 30
0.0
 41
0.9999933913348005
 10
3061.548805734286
 20
719.2325625980027
 30
0.0
 41
1.0
 10
3076.521264762608
 20
718.2279778399039
 30
0.0
 41
0.9999894995966851
 10
3091.483887699431
 20
717.0862095878245
 30
0.0
 41
1.0
 10
3103.958131850574
 20
716.1359395449582
 30
0.0
 41
0.9999855940226169
 10
3116.421455890859
 20
715.051811248341
 30
0.0
 41
1.0
 10
3126.396955723071
 20
714.1840212269539
 30
0.0
 41
0.999981312281198
 10
3136.361099585343
 20
713.1943275795972
 30
0.0
 41
1.0
 10
3143.838671870714
 20
712.4510785714297
 30
0.0
 41
0.9999812177359832
 10
3151.306571859669
 20
711.6162276110523
 30
0.0
 41
1.0
 10
3158.781428060558
 20
710.7812910583821
 30
0.0
 41
0.9999680878452899
 10
3166.241990017829
 20
709.8270324180331
 30
0.0
 41
1.0
 10
3173.709457548203
 20
708.8727928759497
 30
0.0
 41
0.9999450413866986
 10
3181.155276126504
 20
707.7621938844571
 30
0.0
 41
1.0
 10
3188.606269210821
 20
706.6518913947937
 30
0.0
 41
0.9999052065304912
 10
3196.023865192797
 20
705.3368478938891
 30
0.0
 41
1.0
 10
3202.213830209772
 20
704.2386740272304
 30
0.0
 41
0.9998949889258447
 10
3208.369369700937
 20
702.9615732772822
 30
0.0
 41
1.0
 10
3213.303137323061
 20
701.9370000481408
 30
0.0
 41
0.9999060996496417
 10
3218.206973614028
 20
700.7776024104056
 30
0.0
 41
1.0
 10
3221.892434281607
 20
699.9056123818852
 30
0.0
 41
0.9999355072589764
 10
3225.557139143556
 20
698.9501411803757
 30
0.0
 41
1.0
 10
3229.220957343372
 20
697.9946440378536
 30
0.0
 41
0.9999281611459565
 10
3232.860818565295
 20
696.9515961598497
 30
0.0
 41
1.0
 10
3236.495996783878
 20
695.9095565228713
 30
0.0
 41
0.9999260266055417
 10
3240.104752399875
 20
694.7794015822075
 30
0.0
 41
1.0
 10
3243.709272868596
 20
693.6502109776963
 30
0.0
 41
0.9999303123021883
 10
3247.286129080186
 20
692.4362345066096
 30
0.0
 41
1.0
 10
3250.859004506047
 20
691.223127093884
 30
0.0
 41
0.9999414973161508
 10
3254.404801656465
 20
689.9330143191125
 30
0.0
 41
1.0
 10
3257.948950733478
 20
688.6442292000374
 30
0.0
 41
0.9999498936452281
 10
3261.466588005324
 20
687.2847484951512
 30
0.0
 41
1.0
 10
3264.986244233612
 20
685.9246875770036
 30
0.0
 41
0.999951092300758
 10
3268.478311111682
 20
684.4952770042541
 30
0.0
 41
1.0
 10
3271.973911761968
 20
683.0644268424777
 30
0.0
 41
0.9999506965640222
 10
3275.440407831701
 20
681.5644398124486
 30
0.0
 41
1.0
 10
3278.910080540516
 20
680.0631135318192
 30
0.0
 41
0.9999501311492256
 10
3282.349075901289
 20
678.492788655946
 30
0.0
 41
1.0
 10
3285.784522546516
 20
676.9241042986199
 30
0.0
 41
0.999948868533133
 10
3289.1875419156
 20
675.2862632078092
 30
0.0
 41
1.0
 10
3293.720828582654
 20
673.1046830454626
 30
0.0
 41
0.9999053374290145
 10
3298.192370793525
 20
670.7991917167333
 30
0.0
 41
1.0
 10
3302.662523247155
 20
668.4945613263255
 30
0.0
 41
0.9998987920419539
 10
3307.065297116648
 20
666.0636836146376
 30
0.0
 41
1.0
 10
3311.470780437594
 20
663.6315060900281
 30
0.0
 41
0.9998893469928816
 10
3315.801960070413
 20
661.0693480561426
 30
0.0
 41
1.0
 10
3319.054575769236
 20
659.1450609817063
 30
0.0
 41
0.999931615606863
 10
3322.261297255941
 20
657.1452292548409
 30
0.0
 41
1.0
 10
3324.938001463813
 20
655.4758993248161
 30
0.0
 41
0.9999480796846937
 10
3327.580130306638
 20
653.7523671929352
 30
0.0
 41
1.0
 10
3329.696886338467
 20
652.371485525651
 30
0.0
 41
0.9999641574669158
 10
3331.789956912802
 20
650.9549595470064
 30
0.0
 41
1.0
 10
3333.879736610398
 20
649.5406711776507
 30
0.0
 41
0.9999614770172653
 10
3335.944367424122
 20
648.0899160710935
 30
0.0
 41
1.0
 10
3338.520237080761
 20
646.2801062962162
 30
0.0
 41
0.9999345415245402
 10
3341.054020392956
 20
644.4118295404676
 30
0.0
 41
1.0
 10
3344.089028948634
 20
642.1742307950746
 30
0.0
 41
0.9998945879548898
 10
3347.057787532522
 20
639.8494517627766
 30
0.0
 41
1.0
 10
3350.022980702255
 20
637.5277558530171
 30
0.0
 41
0.9998783985201072
 10
3352.914329142084
 20
635.1147190462698
 30
0.0
 41
1.0
 10
3356.768264129208
 20
631.8982166920278
 30
0.0
 41
0.9997535088851762
 10
3360.475610438409
 20
628.5137986292778
 30
0.0
 41
1.0
 10
3364.183902250276
 20
625.1271999262769
 30
0.0
 41
0.9997401537066282
 10
3367.73398336644
 20
621.5751015315554
 30
0.0
 41
1.0
 10
3371.292270801401
 20
618.0149020325216
 30
0.0
 41
0.9997388696307066
 10
3374.684172472065
 20
614.2958385752429
 30
0.0
 41
1.0
 10
3376.810761009062
 20
611.9640380312438
 30
0.0
 41
0.9998980373543082
 10
3378.869893398973
 20
609.5724598110091
 30
0.0
 41
1.0
 10
3380.522089977616
 20
607.6535310721193
 30
0.0
 41
0.9999353285898717
 10
3382.1302151354
 20
605.6975212264587
 30
0.0
 41
1.0
 10
3383.339632692828
 20
604.226488542417
 30
0.0
 41
0.9999640395338673
 10
3384.523926868747
 20
602.7351551489
 30
0.0
 41
1.0
 10
3385.70932249978
 20
601.2424164272905
 30
0.0
 41
0.9999646451083533
 10
3386.869446991145
 20
599.7299539128468
 30
0.0
 41
1.0
 10
3388.413897696577
 20
597.716383730853
 30
0.0
 41
0.9999387881082675
 10
3389.913415259957
 20
595.6691319299159
 30
0.0
 41
1.0
 10
3391.785174219697
 20
593.113559652514
 30
0.0
 41
0.999908422053549
 10
3393.587083755652
 20
590.5082663307127
 30
0.0
 41
1.0
 10
3395.747081202475
 20
587.3849761727337
 30
0.0
 41
0.9998756968595174
 10
3397.807528626381
 20
584.1951349863214
 30
0.0
 41
1.0
 10
3399.867444633235
 20
581.0060349182651
 30
0.0
 41
0.9998849103247314
 10
3401.82965841395
 20
577.7559071856765
 30
0.0
 41
1.0
 10
3403.79298003605
 20
574.5038847523172
 30
0.0
 41
0.9998945514953032
 10
3405.661032385566
 20
571.1962175806784
 30
0.0
 41
1.0
 10
3407.530082008445
 20
567.8866633798135
 30
0.0
 41
0.9999050209906407
 10
3409.307204381244
 20
564.5268521390826
 30
0.0
 41
1.0
 10
3411.081139856886
 20
561.1728942104528
 30
0.0
 41
0.9999157472088761
 10
3412.7674114374
 20
557.7740165993129
 30
0.0
 41
1.0
 10
3414.451467923492
 20
554.3798525978417
 30
0.0
 41
0.9999258339166596
 10
3416.052356296702
 20
550.9456784709591
 30
0.0
 41
1.0
 10
3417.652971507315
 20
547.5129422298125
 30
0.0
 41
0.9999309619884117
 10
3419.172478429501
 20
544.0435408596688
 30
0.0
 41
1.0
 10
3420.692442095884
 20
540.5729767078348
 30
0.0
 41
0.9999330111860215
 10
3422.131662559652
 20
537.0681586618034
 30
0.0
 41
1.0
 10
3423.571969709025
 20
533.5606822552618
 30
0.0
 41
0.9999356577869169
 10
3424.932335546054
 20
530.0214337168813
 30
0.0
 41
1.0
 10
3426.291852069685
 20
526.4843179530949
 30
0.0
 41
0.9999382748900007
 10
3427.572438521948
 20
522.9178671343204
 30
0.0
 41
1.0
 10
3429.278083650201
 20
518.1671266819371
 30
0.0
 41
0.999896196270661
 10
3430.846135428978
 20
513.3692132012122
 30
0.0
 41
1.0
 10
3432.805379831092
 20
507.3735080662946
 30
0.0
 41
0.9998492111223262
 10
3434.555239081602
 20
501.3133833732299
 30
0.0
 41
1.0
 10
3436.655548490897
 20
494.0377259369851
 30
0.0
 41
0.9998034352273169
 10
3438.465761444569
 20
486.6845212066167
 30
0.0
 41
1.0
 10
3440.273808224934
 20
479.3397401784926
 30
0.0
 41
0.9998246896101228
 10
3441.805587364195
 20
471.932413118101
 30
0.0
 41
1.0
 10
3443.081901081023
 20
465.7626100102414
 30
0.0
 41
0.9998912911492052
 10
3444.175735951816
 20
459.557855996668
 30
0.0
 41
1.0
 10
3445.051285461548
 20
454.5925571566696
 30
0.0
 41
0.9999368349887852
 10
3445.815006004156
 20
449.6088326009505
 30
0.0
 41
1.0
 10
3446.578160340033
 20
444.628779980564
 30
0.0
 41
0.999942159105038
 10
3447.234019480756
 20
439.6334644320011
 30
0.0
 41
1.0
 10
3447.889519809493
 20
434.6410093219367
 30
0.0
 41
0.9999472749190687
 10
3448.442354680325
 20
429.6361454563979
 30
0.0
 41
1.0
 10
3448.995112823676
 20
424.6321200960488
 30
0.0
 41
0.9999519222362311
 10
3449.449632696435
 20
419.6182171195917
 30
0.0
 41
1.0
 10
3449.904190992123
 20
414.6039240094735
 30
0.0
 41
0.9999563382704753
 10
3450.264960865321
 20
409.5820116509241
 30
0.0
 41
1.0
 10
3450.715146193883
 20
403.3117061878749
 30
0.0
 41
0.9999389137945918
 10
3451.026618693607
 20
397.0329816110272
 30
0.0
 41
1.0
 10
3451.399659407159
 20
389.5078349739165
 30
0.0
 41
0.9999234509150277
 10
3451.586382159133
 20
381.9757618265102
 30
0.0
 41
1.0
 10
3451.772886110972
 20
374.4492021005692
 30
0.0
 41
0.9999348288703933
 10
3451.787497692394
 20
366.9203461759351
 30
0.0
 41
1.0
 10
3451.804321875825
 20
359.390342307712
 30
0.0
 41
0.9999360634098406
 10
3451.650855257113
 20
351.8618836802409
 30
0.0
 41
1.0
 10
3451.522761149417
 20
345.5817911488972
 30
0.0
 41
0.9999490570043489
 10
3451.267920478063
 20
339.3055640549428
 30
0.0
 41
1.0
 10
3451.063580053614
 20
334.2784019201805
 30
0.0
 41
0.9999633565900296
 10
3450.773200742736
 20
329.2554750847521
 30
0.0
 41
1.0
 10
3450.482804568895
 20
324.2320638443856
 30
0.0
 41
0.9999595197491636
 10
3450.102060636168
 20
319.2146915754274
 30
0.0
 41
1.0
 10
3449.721300898465
 20
314.196950295587
 30
0.0
 41
0.9999554295701573
 10
3449.245864876609
 20
309.1872930100643
 30
0.0
 41
1.0
 10
3448.770248285447
 20
304.1755388254782
 30
0.0
 41
0.9999509338241026
 10
3448.195436476066
 20
299.1741907539782
 30
0.0
 41
1.0
 10
3447.620205032972
 20
294.1691418023404
 30
0.0
 41
0.9999461619557486
 10
3446.941232581705
 20
289.1771078850043
 30
0.0
 41
1.0
 10
3446.092815181008
 20
282.9372987271876
 30
0.0
 41
0.9999068957949392
 10
3445.074438920878
 20
276.7229652790547
 30
0.0
 41
1.0
 10
3443.852598622789
 20
269.2638989741271
 30
0.0
 41
0.9998487147155657
 10
3442.372052436389
 20
261.851844815847
 30
0.0
 41
1.0
 10
3440.889795333808
 20
254.4313073932558
 30
0.0
 41
0.9998288275322824
 10
3439.134013821985
 20
247.0706896854161
 30
0.0
 41
1.0
 10
3437.378496631268
 20
239.7116302326256
 30
0.0
 41
0.9998074972906644
 10
3435.335608188135
 20
232.4271121671994
 30
0.0
 41
1.0
 10
3433.632340320972
 20
226.3546578500685
 30
0.0
 41
0.9998521146174875
 10
3431.72125055895
 20
220.3443701046744
 30
0.0
 41
1.0
 10
3430.190078605178
 20
215.529785366493
 30
0.0
 41
0.9998979928313424
 10
3428.522012036335
 20
210.7608999961935
 30
0.0
 41
1.0
 10
3426.854622770031
 20
205.9941021886212
 30
0.0
 41
0.9998913933900002
 10
3425.047469284872
 20
201.2785169031305
 30
0.0
 41
1.0
 10
3423.240967866654
 20
196.564638608255
 30
0.0
 41
0.9998852292613181
 10
3421.292479809277
 20
191.907655653252
 30
0.0
 41
1.0
 10
3419.586656540037
 20
187.8308635688295
 30
0.0
 41
0.9999077497708437
 10
3417.77072455799
 20
183.8019111290426
 30
0.0
 41
1.0
 10
3416.732161298396
 20
181.4979115531512
 30
0.0
 41
0.9999688929314594
 10
3415.657382650823
 20
179.2105815488437
 30
0.0
 41
1.0
 10
3414.581775653376
 20
176.9212249840981
 30
0.0
 41
0.9999672921781627
 10
3413.469278287343
 20
174.6495662280191
 30
0.0
 41
1.0
 10
3412.080401213912
 20
171.8132795098078
 30
0.0
 41
0.9999437593517498
 10
3410.631679080971
 20
169.0070888437033
 30
0.0
 41
1.0
 10
3408.320089237339
 20
164.5280708789738
 30
0.0
 41
0.9998366499067865
 10
3405.848127572404
 20
160.1355254824362
 30
0.0
 41
1.0
 10
3402.765784645821
 20
154.657235503958
 30
0.0
 41
0.999704110316817
 10
3399.420652475246
 20
149.3353383077747
 30
0.0
 41
1.0
 10
3396.077867729519
 20
144.0178264163037
 30
0.0
 41
0.9996619587184309
 10
3392.463191553374
 20
138.8812654350806
 30
0.0
 41
1.0
 10
3389.567338985542
 20
134.7672619750253
 30
0.0
 41
0.9997627020866882
 10
3386.495039033734
 20
130.7832991777472
 30
0.0
 41
1.0
 10
3384.184823370584
 20
127.7879726114284
 30
0.0
 41
0.9998589731131559
 10
3381.77531879679
 20
124.8719195669815
 30
0.0
 41
1.0
 10
3379.761185515781
 20
122.4344807064974
 30
0.0
 41
0.999898854988125
 10
3377.678541086782
 20
120.055314202314
 30
0.0
 41
1.0
 10
3376.007107357863
 20
118.145949439155
 30
0.0
 41
0.9999338950309995
 10
3374.292210465339
 20
116.2755235098613
 30
0.0
 41
1.0
 10
3373.002219988077
 20
114.8685525711363
 30
0.0
 41
0.9999624003397686
 10
3371.688022854627
 20
113.4841651440499
 30
0.0
 41
1.0
 10
3370.372485356663
 20
112.0983825535153
 30
0.0
 41
0.9999622855695832
 10
3369.033076463226
 20
110.7356587689708
 30
0.0
 41
1.0
 10
3367.24962825622
 20
108.921183463642
 30
0.0
 41
0.9999331924265643
 10
3365.424712355149
 20
107.148420057335
 30
0.0
 41
1.0
 10
3363.146138124561
 20
104.9349617932293
 30
0.0
 41
0.9998966868152802
 10
3360.804878960118
 20
102.7879164895253
 30
0.0
 41
1.0
 10
3357.996973374357
 20
100.2131976535633
 30
0.0
 41
0.999855032670557
 10
3355.103029893204
 20
97.73557742626907
 30
0.0
 41
1.0
 10
3352.209275931944
 20
95.25890888580752
 30
0.0
 41
0.9998688717980902
 10
3349.236836842634
 20
92.87724876984865
 30
0.0
 41
1.0
 10
3346.758871404533
 20
90.89136247041267
 30
0.0
 41
0.9999205437208306
 10
3344.231630093841
 20
88.9685758300788
 30
0.0
 41
1.0
 10
3342.20955928212
 20
87.42999904753444
 30
0.0
 41
0.9999540405759235
 10
3340.158359889667
 20
85.93047581136936
 30
0.0
 41
1.0
 10
3338.11012815244
 20
84.43310391612184
 30
0.0
 41
0.9999578043085232
 10
3336.034732416442
 20
82.97361483391815
 30
0.0
 41
1.0
 10
3333.443681655263
 20
81.15158187572165
 30
0.0
 41
0.9999398310299095
 10
3330.813282573778
 20
79.38683010283908
 30
0.0
 41
1.0
 10
3327.659683564649
 20
77.27115105581635
 30
0.0
 41
0.9999215617778586
 10
3324.45408126525
 20
75.23512589917472
 30
0.0
 41
1.0
 10
3321.249572279299
 20
73.19971723344366
 30
0.0
 41
0.9999288739703587
 10
3317.997426851925
 20
71.24132084946444
 30
0.0
 41
1.0
 10
3314.744325481063
 20
69.28226447033432
 30
0.0
 41
0.9999345221351504
 10
3311.447242504455
 20
67.39816939017309
 30
0.0
 41
1.0
 10
3308.149228667583
 20
65.51351300323495
 30
0.0
 41
0.9999393416693525
 10
3304.810501502974
 20
63.70195955789122
 30
0.0
 41
1.0
 10
3301.480555731325
 20
61.89514507207778
 30
0.0
 41
0.9999430882376818
 10
3298.112817609137
 20
60.15978995895652
 30
0.0
 41
1.0
 10
3294.753888033612
 20
58.42890281075738
 30
0.0
 41
0.9999462655337337
 10
3291.359795557284
 20
56.76802518874974
 30
0.0
 41
1.0
 10
3286.844774604743
 20
54.55871280284016
 30
0.0
 41
0.9999091278868895
 10
3282.271832896276
 20
52.47192590634217
 30
0.0
 41
1.0
 10
3276.567173730406
 20
49.86839642925801
 30
0.0
 41
0.9998625647077602
 10
3270.779336281885
 20
47.45542324119404
 30
0.0
 41
1.0
 10
3264.997678878309
 20
45.04530880310159
 30
0.0
 41
0.9998662564323614
 10
3259.140292478249
 20
42.82557041819329
 30
0.0
 41
1.0
 10
3254.453522125724
 20
41.0476018411926
 30
0.0
 41
0.9999045969761848
 10
3249.719427002633
 20
39.39977540504987
 30
0.0
 41
1.0
 10
3244.975700803961
 20
37.74873284995639
 30
0.0
 41
0.9998806358402918
 10
3240.183227031931
 20
36.24504574449853
 30
0.0
 41
1.0
 10
3235.379090113843
 20
34.73916032015154
 30
0.0
 41
0.9998688364366353
 10
3230.528701344486
 20
33.38965995887539
 30
0.0
 41
1.0
 10
3225.665622820337
 20
32.0375180719746
 30
0.0
 41
0.9998782367841437
 10
3220.762717901367
 20
30.83779153234419
 30
0.0
 41
1.0
 10
3217.076789723928
 20
29.93573847590024
 30
0.0
 41
0.9999413997505087
 10
3213.372195832351
 20
29.11369812143629
 30
0.0
 41
1.0
 10
3209.662875998933
 20
28.29069552542462
 30
0.0
 41
0.9999518347585349
 10
3205.938116534911
 20
27.54065963641461
 30
0.0
 41
1.0
 10
3202.218625261629
 20
26.79170253249783
 30
0.0
 41
0.9999616707335404
 10
3198.486589900572
 20
26.10798904034991
 30
0.0
 41
1.0
 10
3194.7592289668
 20
25.42507999504421
 30
0.0
 41
0.9999703389681114
 10
3191.021791003348
 20
24.79966672037708
 30
0.0
 41
1.0
 10
3186.043551367335
 20
23.96713432908336
 30
0.0
 41
0.9999613324034507
 10
3181.051439759049
 20
23.22228417868425
 30
0.0
 41
1.0
 10
3174.816332379535
 20
22.29244827377781
 30
0.0
 41
0.9999599157173578
 10
3168.565574608549
 20
21.47441029630946
 30
0.0
 41
1.0
 10
3161.06910883857
 20
20.49360439023834
 30
0.0
 41
0.9999649752958001
 10
3153.557276201996
 20
19.63841452480566
 30
0.0
 41
1.0
 10
3146.052277859415
 20
18.78325797181272
 30
0.0
 41
0.9999795090890044
 10
3138.536946008677
 20
18.0242586137206
 30
0.0
 41
1.0
 10
3128.523482410342
 20
17.01370774103695
 30
0.0
 41
0.9999797499365559
 10
3118.497967989569
 20
16.13068628020259
 30
0.0
 41
1.0
 10
3105.972642957117
 20
15.0275811984572
 30
0.0
 41
0.9999845454287898
 10
3093.43582680565
 20
14.06381318993676
 30
0.0
 41
1.0
 10
3078.398394892762
 20
12.9058392787878
 30
0.0
 41
0.9999889676847869
 10
3063.350748014512
 20
11.88918518760363
 30
0.0
 41
1.0
 10
3048.306151930349
 20
10.87092440561188
 30
0.0
 41
0.9999931903509875
 10
3033.254450055421
 20
9.963732571411124
 30
0.0
 41
1.0
 10
3013.188035549007
 20
8.754352949244589
 30
0.0
 41
0.999991351136302
 10
2993.112255605581
 20
7.711927951039732
 30
0.0
 41
1.0
 10
2968.020154500933
 20
6.4081381913422
 30
0.0
 41
0.9999895984181662
 10
2942.917204238936
 20
5.333292282790949
 30
0.0
 41
1.0
 10
2912.794381875778
 20
4.042190376544806
 30
0.0
 41
0.9999869341740051
 10
2882.659934035543
 20
3.05912139682215
 30
0.0
 41
1.0
 10
2852.525997336361
 20
2.074442934472482
 30
0.0
 41
0.9999870467285097
 10
2822.383598396087
 20
1.396564781749791
 30
0.0
 41
1.0
 10
2792.239984611957
 20
0.7174225495722317
 30
0.0
 41
0.9999856705043439
 10
2762.090827264118
 20
0.3610556690163105
 30
0.0
 41
1.0
 10
2731.940223506656
 20
0.0033154244217007
 30
0.0
 41
0.9999827287239867
 10
2701.787497692394
 20
0.0000000000008851
 30
0.0
 41
1.0
  0
SPLINE
  5
9B
330
1F
100
AcDbEntity
  8
Default
100
AcDbSpline
210
0.0
220
0.0
230
1.0
 70
    12
 71
     2
 72
     8
 73
     5
 74
     0
 42
0.000000001
 43
0.0000000001
 40
0.0
 40
0.0
 40
0.0
 40
41.249111541634
 40
41.249111541634
 40
82.498223083268
 40
82.498223083268
 40
82.498223083268
 10
2675.764457470563
 20
365.5000000000007
 30
0.0
 41
1.0
 10
2675.764457470563
 20
391.494242368935
 30
0.0
 41
0.707106781186548
 10
2701.787497692395
 20
391.4942423689346
 30
0.0
 41
1.0
 10
2727.810537914225
 20
391.4942423689343
 30
0.0
 41
0.707106781186548
 10
2727.810537914226
 20
365.5000000000002
 30
0.0
 41
1.0
  0
SPLINE
  5
9C
330
1F
100
AcDbEntity
  8
Default
100
AcDbSpline
210
0.0
220
0.0
230
1.0
 70
     8
 71
     3
 72
    85
 73
    81
 74
     0
 42
0.000000001
 43
0.0000000001
 40
0.0
 40
0.0
 40
0.0
 40
0.0
 40
53.12648050584779
 40
106.2625452029378
 40
162.3592411917646
 40
218.4573574422647
 40
274.5526349888168
 40
329.1620395257177
 40
355.722825778083
 40
379.3249012489243
 40
400.7026971320635
 40
420.5874207159673
 40
448.5238582897865
 40
471.9793982407207
 40
492.4025622484861
 40
510.557585736701
 40
527.5678105243952
 40
536.2311869491526
 40
544.903774838542
 40
554.3205730220569
 40
563.3849180319145
 40
581.5224227310974
 40
603.2195490715483
 40
624.1727858875024
 40
644.3473171912238
 40
654.0343892636703
 40
663.3572235219777
 40
682.214771964287
 40
700.58673094764
 40
719.7125079424933
 40
739.0432630030135
 40
749.8500006419547
 40
760.6578648656347
 40
783.0314634486883
 40
806.1845048093783
 40
829.3807790320375
 40
853.3369986991049
 40
878.7898405913473
 40
905.0075492557111
 40
932.6946248072497
 40
960.4014046408158
 40
986.6206539217195
 40
1012.051678330258
 40
1036.670013353755
 40
1059.836042337279
 40
1082.992641535745
 40
1105.038039464286
 40
1115.860770510715
 40
1126.665238010372
 40
1146.433770372095
 40
1165.0393339252
 40
1183.643569868711
 40
1202.205439516963
 40
1211.512704466615
 40
1221.164742175707
 40
1241.481401764248
 40
1262.877292757897
 40
1284.363797006905
 40
1302.381241070009
 40
1321.142349735921
 40
1323.032155200516
 40
1329.771089525918
 40
1334.079469735443
 40
1338.387386260306
 40
1355.300556247022
 40
1373.7466735561
 40
1394.092167550683
 40
1417.448856910328
 40
1430.616025502794
 40
1445.265784651699
 40
1464.331809811136
 40
1486.349969111493
 40
1509.849857086403
 40
1536.295616872202
 40
1589.20068785883
 40
1645.05395086127
 40
1700.909699418948
 40
1756.76455858848
 40
1812.616345961574
 40
1865.522735743706
 40
1865.522735743706
 40
1865.522735743706
 40
1865.522735743706
 10
2701.787497692392
 20
20.51659268977449
 30
0.0
 10
2684.078662457373
 20
20.51653819729365
 30
0.0
 10
2648.657878824583
 20
20.71163835804279
 30
0.0
 10
2594.543955836848
 20
21.54635989007452
 30
0.0
 10
2539.450125671013
 20
22.91830042349068
 30
0.0
 10
2483.385697229958
 20
24.83842614195483
 30
0.0
 10
2427.837105358934
 20
27.26527398598219
 30
0.0
 10
2382.147229130341
 20
29.7206125128307
 30
0.0
 10
2347.291247535098
 20
31.90409784449669
 30
0.0
 10
2323.501211320295
 20
33.5514118969761
 30
0.0
 10
2301.942353176331
 20
35.19883461204575
 30
0.0
 10
2278.959560299552
 20
37.16260069697766
 30
0.0
 10
2255.316838229354
 20
39.522100139858
 30
0.0
 10
2231.560968244223
 20
42.49225492566178
 30
0.0
 10
2211.136833029994
 20
45.74593404368897
 30
0.0
 10
2192.977369631726
 20
49.45771166728222
 30
0.0
 10
2178.834344601837
 20
53.14339792060254
 30
0.0
 10
2167.892629669305
 20
56.51735381767737
 30
0.0
 10
2159.4475803587
 20
59.38389848422336
 30
0.0
 10
2150.955159522708
 20
62.51741578237007
 30
0.0
 10
2139.611994864039
 20
67.02797653303841
 30
0.0
 10
2124.699060335046
 20
73.61998851238687
 30
0.0
 10
2106.650733582489
 20
82.85280684773178
 30
0.0
 10
2088.668104473436
 20
93.60926159261
 30
0.0
 10
2074.791338818417
 20
103.3440467025358
 30
0.0
 10
2064.586229903849
 20
111.5020944906626
 30
0.0
 10
2055.086110958868
 20
119.8176717643594
 30
0.0
 10
2044.127340516885
 20
130.8276620693113
 30
0.0
 10
2032.132869171839
 20
145.309186902332
 30
0.0
 10
2021.380934276336
 20
160.9270407489202
 30
0.0
 10
2013.22381036058
 20
175.1934667061591
 30
0.0
 10
2007.133876893682
 20
187.4103180022433
 30
0.0
 10
2001.077770612921
 20
200.7668537550513
 30
0.0
 10
1994.265360917776
 20
218.2785335846059
 30
0.0
 10
1987.465301497756
 20
240.1675276666762
 30
0.0
 10
1981.979310201768
 20
262.9631067914036
 30
0.0
 10
1977.733693278024
 20
286.799822198432
 30
0.0
 10
1974.71222186913
 20
311.8364475782808
 30
0.0
 10
1972.907676442816
 20
338.2354126765538
 30
0.0
 10
1972.335858074453
 20
365.4399193681103
 30
0.0
 10
1972.902542250264
 20
392.6445442921605
 30
0.0
 10
1974.701185476966
 20
419.044138456461
 30
0.0
 10
1977.74174512223
 20
444.2937164735194
 30
0.0
 10
1982.033465223776
 20
468.3295903462526
 30
0.0
 10
1987.600700503831
 20
491.3235526952765
 30
0.0
 10
1994.39767584738
 20
513.0895992986586
 30
0.0
 10
2001.191386824924
 20
530.4973515435274
 30
0.0
 10
2007.212202916091
 20
543.7543038009786
 30
0.0
 10
2013.377414239021
 20
556.1014914082186
 30
0.0
 10
2021.543531210566
 20
570.3308062643053
 30
0.0
 10
2032.350164335198
 20
585.9708191765105
 30
0.0
 10
2044.235541264035
 20
600.2902654171025
 30
0.0
 10
2055.185868713394
 20
611.2708219741455
 30
0.0
 10
2064.600287249005
 20
619.5090910539735
 30
0.0
 10
2074.829270632913
 20
627.6857145226669
 30
0.0
 10
2088.859080107143
 20
637.5226907123056
 30
0.0
 10
2106.961939206889
 20
648.3212337600311
 30
0.0
 10
2125.055961317184
 20
657.5468983577628
 30
0.0
 10
2142.832122059001
 20
665.3852031454132
 30
0.0
 10
2154.878422352197
 20
669.9828509539485
 30
0.0
 10
2163.497979781781
 20
672.9926950687439
 30
0.0
 10
2167.588531732008
 20
674.3588242167535
 30
0.0
 10
2172.471442190959
 20
675.8938451670411
 30
0.0
 10
2180.625971641437
 20
678.3283826813504
 30
0.0
 10
2193.429951480908
 20
681.6483783226977
 30
0.0
 10
2211.632794032026
 20
685.3433074311269
 30
0.0
 10
2232.097688393469
 20
688.5812627072368
 30
0.0
 10
2250.911075655747
 20
690.9227296828423
 30
0.0
 10
2267.872848653777
 20
692.7306892406855
 30
0.0
 10
2283.429891147918
 20
694.2184091309115
 30
0.0
 10
2301.940390301148
 20
695.8015094579888
 30
0.0
 10
2323.406086529427
 20
697.4420759312156
 30
0.0
 10
2347.336831208927
 20
699.0985225776756
 30
0.0
 10
2381.553521463525
 20
701.2425032218422
 30
0.0
 10
2426.556775934275
 20
703.669275358323
 30
0.0
 10
2481.375676804497
 20
706.082372195182
 30
0.0
 10
2537.197502281618
 20
708.0138089273816
 30
0.0
 10
2593.034372543527
 20
709.4266937053498
 30
0.0
 10
2647.899363893598
 20
710.2846638372334
 30
0.0
 10
2684.152026991887
 20
710.4834653792389
 30
0.0
 10
2701.787497692398
 20
710.4834073102267
 30
0.0
  0
SPLINE
  5
9D
330
1F
100
AcDbEntity
  8
Default
100
AcDbSpline
210
0.0
220
0.0
230
1.0
 70
     8
 71
     3
 72
    85
 73
    81
 74
     0
 42
0.000000001
 43
0.0000000001
 40
0.0
 40
0.0
 40
0.0
 40
0.0
 40
52.90638938160996
 40
108.7581787901024
 40
164.6130390637354
 40
220.4687890424823
 40
276.3220532654916
 40
329.2271252874613
 40
355.6728856456169
 40
379.1727741755705
 40
401.19093363711
 40
420.2569583789191
 40
434.90671679963
 40
448.0738846615502
 40
471.4305737560835
 40
491.7760680150808
 40
510.2221855741951
 40
527.1353556824164
 40
535.75165255613
 40
544.3803924409673
 40
549.4252264173438
 40
563.1415015722725
 40
571.8043264641416
 40
581.1589457293747
 40
602.6454498773944
 40
624.0413407605615
 40
644.3580003113749
 40
654.0100380303897
 40
663.3173029205629
 40
681.8791724850196
 40
700.4834084050282
 40
719.0889745300359
 40
738.8575078279282
 40
749.6619756477848
 40
760.4847070950602
 40
782.530102427633
 40
805.6867030255201
 40
828.8527329879961
 40
853.4710680055628
 40
878.9020917216463
 40
905.1213403979883
 40
932.8281190066711
 40
960.5151946215611
 40
986.7329029020979
 40
1011.459911150727
 40
1036.141954638869
 40
1059.338227588719
 40
1082.491267823801
 40
1104.864867920382
 40
1115.672731105176
 40
1126.479468421551
 40
1145.810223302944
 40
1164.936000079907
 40
1183.307958928578
 40
1202.165507305769
 40
1211.488341525693
 40
1221.175414281699
 40
1241.349945521776
 40
1262.303182229255
 40
1284.000308172665
 40
1302.137808190746
 40
1311.564508543899
 40
1320.618953687131
 40
1329.291540987409
 40
1337.954917497062
 40
1354.96514249268
 40
1373.120166190548
 40
1393.543330448638
 40
1416.998871527733
 40
1444.93531151675
 40
1464.820036309869
 40
1486.197832772862
 40
1509.799908550235
 40
1536.360695239094
 40
1590.970100849228
 40
1647.065378209549
 40
1703.163491746043
 40
1759.260185392299
 40
1812.396246927644
 40
1865.522726655601
 40
1865.522726655601
 40
1865.522726655601
 40
1865.522726655601
 10
2701.787497692398
 20
710.4834073102267
 30
0.0
 10
2719.422968481709
 20
710.4834680524474
 30
0.0
 10
2755.675631172449
 20
710.2845830409173
 30
0.0
 10
2810.540621866723
 20
709.4265975884011
 30
0.0
 10
2866.377500849562
 20
708.0138738930346
 30
0.0
 10
2922.199311649867
 20
706.0822199504346
 30
0.0
 10
2977.018238485185
 20
703.6694528526562
 30
0.0
 10
3022.021469429557
 20
701.2422718054303
 30
0.0
 10
3056.238170537919
 20
699.0986940823963
 30
0.0
 10
3080.168945820171
 20
697.4419962264302
 30
0.0
 10
3101.634548365198
 20
695.8014252988053
 30
0.0
 10
3120.145192084966
 20
694.2184272240576
 30
0.0
 10
3135.702031858566
 20
692.730285689749
 30
0.0
 10
3152.664091118869
 20
690.9231877017431
 30
0.0
 10
3171.477075318716
 20
688.580671322929
 30
0.0
 10
3191.942467305727
 20
685.3439305943975
 30
0.0
 10
3210.144828027021
 20
681.6478832060018
 30
0.0
 10
3224.339942743128
 20
677.9682083737829
 30
0.0
 10
3235.226860566355
 20
674.6292556047465
 30
0.0
 10
3242.267038142809
 20
672.2525356046037
 30
0.0
 10
3250.856601766648
 20
669.1573271096091
 30
0.0
 10
3259.376200102997
 20
665.8394161946735
 30
0.0
 10
3269.109614786876
 20
661.6956582483383
 30
0.0
 10
3281.092934240882
 20
656.2347327652481
 30
0.0
 10
3296.612863594801
 20
648.3211070195935
 30
0.0
 10
3314.71613726082
 20
637.5227252011242
 30
0.0
 10
3328.745603293116
 20
627.6857722151076
 30
0.0
 10
3338.974793806708
 20
619.5090290705764
 30
0.0
 10
3348.389310612394
 20
611.2709861961039
 30
0.0
 10
3359.339298437779
 20
600.2901475302829
 30
0.0
 10
3371.224997135325
 20
585.9708371624537
 30
0.0
 10
3382.031357763477
 20
570.3308535475054
 30
0.0
 10
3390.197606916207
 20
556.1013838258917
 30
0.0
 10
3396.362838331587
 20
543.754374739099
 30
0.0
 10
3402.383493338783
 20
530.4972595640454
 30
0.0
 10
3409.17738313601
 20
513.0896179973434
 30
0.0
 10
3415.974317959501
 20
491.3235393084995
 30
0.0
 10
3421.541523255691
 20
468.3295538590802
 30
0.0
 10
3425.833256281648
 20
444.293780899622
 30
0.0
 10
3428.87372708326
 20
419.0439735647061
 30
0.0
 10
3430.672529727065
 20
392.6447840709188
 30
0.0
 10
3431.239020045218
 20
365.4396414212061
 30
0.0
 10
3430.667463679822
 20
338.2357047801194
 30
0.0
 10
3428.879198383947
 20
312.0776722557307
 30
0.0
 10
3425.87616421797
 20
287.0397323972385
 30
0.0
 10
3421.652284839419
 20
263.1984228969312
 30
0.0
 10
3416.109704634666
 20
240.167515819104
 30
0.0
 10
3409.30953866014
 20
218.2785516892571
 30
0.0
 10
3402.497373195361
 20
200.7667669934147
 30
0.0
 10
3396.44101860859
 20
187.4103911288173
 30
0.0
 10
3390.351243819679
 20
175.1933686327291
 30
0.0
 10
3382.194090739309
 20
160.9270709470384
 30
0.0
 10
3371.442105469703
 20
145.3091693156866
 30
0.0
 10
3359.447666222979
 20
130.8275475431996
 30
0.0
 10
3348.488823388317
 20
119.8178271048873
 30
0.0
 10
3338.988697864664
 20
111.5019939931418
 30
0.0
 10
3328.783736148031
 20
103.3442899856441
 30
0.0
 10
3314.906720245067
 20
93.60901781692479
 30
0.0
 10
3296.924373630967
 20
82.85308178387619
 30
0.0
 10
3278.875956124436
 20
73.61956747924158
 30
0.0
 10
3263.852333426866
 20
66.97986082053884
 30
0.0
 10
3252.50723944461
 20
62.47336975416059
 30
0.0
 10
3244.012754702359
 20
59.34599103772489
 30
0.0
 10
3235.682643827038
 20
56.51636799252265
 30
0.0
 10
3224.740283684467
 20
53.14445566691551
 30
0.0
 10
3210.597917005895
 20
49.45689065509084
 30
0.0
 10
3192.437849903282
 20
45.74670749551777
 30
0.0
 10
3172.014180433101
 20
42.49208012657376
 30
0.0
 10
3148.258109080167
 20
39.52189099923405
 30
0.0
 10
3124.615445997904
 20
37.16277309043271
 30
0.0
 10
3101.63268562749
 20
35.19831621771225
 30
0.0
 10
3080.073739224941
 20
33.55175634818602
 30
0.0
 10
3056.283742870725
 20
31.90406323771295
 30
0.0
 10
3021.427771596052
 20
29.72046901104096
 30
0.0
 10
2975.73786381742
 20
27.26539462546555
 30
0.0
 10
2920.189305045736
 20
24.83830402454735
 30
0.0
 10
2864.124855391756
 20
22.91835831869455
 30
0.0
 10
2809.031039781037
 20
21.54625763012612
 30
0.0
 10
2754.917115673942
 20
20.71155395222264
 30
0.0
 10
2719.496332465116
 20
20.51654156279085
 30
0.0
 10
2701.787497692392
 20
20.51659268977449
 30
0.0
  0
SPLINE
  5
9E
330
1F
100
AcDbEntity
  8
Default
100
AcDbSpline
210
0.0
220
0.0
230
1.0
 70
    12
 71
     2
 72
     8
 73
     5
 74
     0
 42
0.000000001
 43
0.0000000001
 40
0.0
 40
0.0
 40
0.0
 40
41.249111541634
 40
41.249111541634
 40
82.498223083268
 40
82.498223083268
 40
82.498223083268
 10
2727.810537914226
 20
365.5000000000002
 30
0.0
 41
1.0
 10
2727.810537914225
 20
339.5057576310659
 30
0.0
 41
0.707106781186548
 10
2701.787497692395
 20
339.5057576310663
 30
0.0
 41
1.0
 10
2675.764457470563
 20
339.5057576310666
 30
0.0
 41
0.707106781186548
 10
2675.764457470563
 20
365.5000000000007
 30
0.0
 41
1.0
  0
ENDSEC
  0
SECTION
  2
OBJECTS
  0
DICTIONARY
  5
C
330
0
100
AcDbDictionary
281
     1
  3
ACAD_CIP_PREVIOUS_PRODUCT_INFO
350
F1
  3
ACAD_COLOR
350
EB
  3
ACAD_DETAILVIEWSTYLE
350
E8
  3
ACAD_GROUP
350
D
  3
ACAD_LAYOUT
350
1A
  3
ACAD_MATERIAL
350
43
  3
ACAD_MLEADERSTYLE
350
6B
  3
ACAD_MLINESTYLE
350
17
  3
ACAD_PLOTSETTINGS
350
19
  3
ACAD_PLOTSTYLENAME
350
E
  3
ACAD_SCALELIST
350
47
  3
ACAD_SECTIONVIEWSTYLE
350
E9
  3
ACAD_TABLESTYLE
350
69
  3
ACAD_VISUALSTYLE
350
2A
  3
ACDB_RECOMPOSE_DATA
350
11A
  3
AcDbVariableDictionary
350
A5
  0
DICTIONARY
  5
A3
330
8
100
AcDbDictionary
280
     1
281
     1
  0
SUN
  5
6D
330
29
100
AcDbSun
 90
        1
290
     0
 63
     7
421
 16777215
 40
1.0
291
     1
 91
  2455826
 92
 54000000
292
     0
 70
     0
 71
   256
280
     1
  0
DICTIONARY
  5
FB
330
2
100
AcDbDictionary
280
     1
281
     1
  3
ACAD_LAYERSTATES
360
FC
  0
DICTIONARY
  5
F2
330
10
100
AcDbDictionary
280
     1
281
     1
  3
ADSK_XREC_LAYER_RECONCILED
360
F3
  0
DICTIONARY
  5
F4
330
6E
100
AcDbDictionary
280
     1
281
     1
  3
ADSK_XREC_LAYER_RECONCILED
360
F5
  0
DICTIONARY
  5
F6
330
81
100
AcDbDictionary
280
     1
281
     1
  3
ADSK_XREC_LAYER_RECONCILED
360
F7
  0
XRECORD
  5
F1
102
{ACAD_REACTORS
330
C
102
}
330
C
100
AcDbXrecord
280
     1
300
ACDMAC
300
2016
300
ACDMAC_F_S
  0
DICTIONARY
  5
EB
102
{ACAD_REACTORS
330
C
102
}
330
C
100
AcDbDictionary
281
     1
  0
DICTIONARY
  5
E8
102
{ACAD_REACTORS
330
C
102
}
330
C
100
AcDbDictionary
281
     1
  3
Imperial24
350
ED
  0
DICTIONARY
  5
D
102
{ACAD_REACTORS
330
C
102
}
330
C
100
AcDbDictionary
281
     1
  0
DICTIONARY
  5
1A
102
{ACAD_REACTORS
330
C
102
}
330
C
100
AcDbDictionary
281
     1
  3
Layout1
350
1E
  3
Layout2
350
26
  3
Model
350
22
  0
DICTIONARY
  5
43
102
{ACAD_REACTORS
330
C
102
}
330
C
100
AcDbDictionary
281
     1
  3
ByBlock
350
45
  3
ByLayer
350
44
  3
Global
350
46
  0
DICTIONARY
  5
6B
102
{ACAD_REACTORS
330
C
102
}
330
C
100
AcDbDictionary
281
     1
  3
Standard
350
6C
  0
DICTIONARY
  5
17
102
{ACAD_REACTORS
330
C
102
}
330
C
100
AcDbDictionary
281
     1
  3
Standard
350
18
  0
DICTIONARY
  5
19
102
{ACAD_REACTORS
330
C
102
}
330
C
100
AcDbDictionary
281
     1
  0
ACDBDICTIONARYWDFLT
  5
E
102
{ACAD_REACTORS
330
C
102
}
330
C
100
AcDbDictionary
281
     1
  3
Normal
350
F
100
AcDbDictionaryWithDefault
340
F
  0
DICTIONARY
  5
47
102
{ACAD_REACTORS
330
C
102
}
330
C
100
AcDbDictionary
281
     1
  3
A0
350
48
  3
A1
350
49
  3
A2
350
4A
  3
A3
350
4B
  3
A4
350
4C
  3
A5
350
4D
  3
A6
350
4E
  3
A7
350
4F
  3
A8
350
50
  3
A9
350
51
  3
B0
350
52
  3
B1
350
53
  3
B2
350
54
  3
B3
350
55
  3
B4
350
56
  3
B5
350
57
  3
B6
350
58
  3
B7
350
59
  3
B8
350
5A
  3
B9
350
5B
  3
C0
350
5C
  3
C1
350
5D
  3
C2
350
5E
  3
C3
350
5F
  3
C4
350
60
  3
C5
350
61
  3
C6
350
62
  3
C7
350
63
  3
C8
350
64
  3
C9
350
65
  3
D0
350
66
  3
D1
350
67
  3
D2
350
68
  0
DICTIONARY
  5
E9
102
{ACAD_REACTORS
330
C
102
}
330
C
100
AcDbDictionary
281
     1
  3
Imperial24
350
EC
  0
DICTIONARY
  5
69
102
{ACAD_REACTORS
330
C
102
}
330
C
100
AcDbDictionary
281
     1
  3
Standard
350
6A
  0
DICTIONARY
  5
2A
102
{ACAD_REACTORS
330
C
102
}
330
C
100
AcDbDictionary
281
     1
  3
2dWireframe
350
2F
  3
Basic
350
32
  3
Brighten
350
36
  3
ColorChange
350
3A
  3
Conceptual
350
34
  3
Dim
350
35
  3
EdgeColorOff
350
3D
  3
Facepattern
350
39
  3
Flat
350
2B
  3
FlatWithEdges
350
2C
  3
Gouraud
350
2D
  3
GouraudWithEdges
350
2E
  3
Hidden
350
31
  3
JitterOff
350
3B
  3
Linepattern
350
38
  3
OverhangOff
350
3C
  3
Realistic
350
33
  3
Shaded
350
42
  3
Shaded with edges
350
41
  3
Shades of Gray
350
3E
  3
Sketchy
350
3F
  3
Thicken
350
37
  3
Wireframe
350
30
  3
X-Ray
350
40
  0
XRECORD
  5
11A
102
{ACAD_REACTORS
330
C
102
}
330
C
100
AcDbXrecord
280
     1
 90
        1
330
6A
330
EC
330
ED
  0
DICTIONARY
  5
A5
102
{ACAD_REACTORS
330
C
102
}
330
C
100
AcDbDictionary
281
     1
  3
CANNOSCALE
350
A6
  3
CMLEADERSTYLE
350
E7
  3
CTABLESTYLE
350
E6
  3
CVIEWDETAILSTYLE
350
107
  3
CVIEWSECTIONSTYLE
350
108
  3
LAYEREVAL
350
10A
  3
LAYERNOTIFY
350
10B
  3
LIGHTINGUNITS
350
109
  3
MSLTSCALE
350
A7
  0
DICTIONARY
  5
FC
102
{ACAD_REACTORS
330
FB
102
}
330
FB
100
AcDbDictionary
281
     1
  0
XRECORD
  5
F3
102
{ACAD_REACTORS
330
F2
102
}
330
F2
100
AcDbXrecord
280
     1
290
     1
  0
XRECORD
  5
F5
102
{ACAD_REACTORS
330
F4
102
}
330
F4
100
AcDbXrecord
280
     1
290
     1
  0
XRECORD
  5
F7
102
{ACAD_REACTORS
330
F6
102
}
330
F6
100
AcDbXrecord
280
     1
290
     1
  0
ACDBDETAILVIEWSTYLE
  5
ED
102
{ACAD_XDICTIONARY
360
104
102
}
102
{ACAD_REACTORS
330
E8
102
}
330
E8
100
AcDbModelDocViewStyle
 70
     0
  3
Imperial24
290
     0
100
AcDbDetailViewStyle
 70
     0
 71
     0
 90
        3
 71
     1
340
11
 62
   256
 40
0.24
340
0
 62
   256
 40
0.24
300

 40
0.36
280
     3
 71
     2
340
16
 90
       25
 62
   256
 71
     3
340
11
 62
   256
 40
0.24
 90
        1
 40
0.75
 90
        1
300
%<\AcVar ViewType \f "%tc1">% %<\AcVar ViewDetailId>%\PSCALE %<\AcVar ViewScale \f "%sn">%
 71
     4
340
16
 90
       25
 62
   256
340
16
 90
       25
 62
   256
280
     0
  0
LAYOUT
  5
1E
102
{ACAD_REACTORS
330
1A
102
}
330
1A
100
AcDbPlotSettings
  1

  2
none_device
  4

  6

 40
0.0
 41
0.0
 42
0.0
 43
0.0
 44
0.0
 45
0.0
 46
0.0
 47
0.0
 48
0.0
 49
0.0
140
0.0
141
0.0
142
1.0
143
1.0
 70
   688
 72
     0
 73
     0
 74
     5
  7

 75
    16
147
1.0
 76
     0
 77
     2
 78
   300
148
0.0
149
0.0
100
AcDbLayout
  1
Layout1
 70
     1
 71
     1
 10
0.0
 20
0.0
 11
12.0
 21
9.0
 12
0.0
 22
0.0
 32
0.0
 14
1.000000000000000E+20
 24
1.000000000000000E+20
 34
1.000000000000000E+20
 15
-1.000000000000000E+20
 25
-1.000000000000000E+20
 35
-1.000000000000000E+20
146
0.0
 13
0.0
 23
0.0
 33
0.0
 16
1.0
 26
0.0
 36
0.0
 17
0.0
 27
1.0
 37
0.0
 76
     0
330
1B
  0
LAYOUT
  5
26
102
{ACAD_REACTORS
330
1A
102
}
330
1A
100
AcDbPlotSettings
  1

  2
none_device
  4

  6

 40
0.0
 41
0.0
 42
0.0
 43
0.0
 44
0.0
 45
0.0
 46
0.0
 47
0.0
 48
0.0
 49
0.0
140
0.0
141
0.0
142
1.0
143
1.0
 70
   688
 72
     0
 73
     0
 74
     5
  7

 75
    16
147
1.0
 76
     0
 77
     2
 78
   300
148
0.0
149
0.0
100
AcDbLayout
  1
Layout2
 70
     1
 71
     2
 10
0.0
 20
0.0
 11
0.0
 21
0.0
 12
0.0
 22
0.0
 32
0.0
 14
0.0
 24
0.0
 34
0.0
 15
0.0
 25
0.0
 35
0.0
146
0.0
 13
0.0
 23
0.0
 33
0.0
 16
1.0
 26
0.0
 36
0.0
 17
0.0
 27
1.0
 37
0.0
 76
     0
330
23
  0
LAYOUT
  5
22
102
{ACAD_REACTORS
330
1A
102
}
330
1A
100
AcDbPlotSettings
  1

  2
none_device
  4
Letter_(8.50_x_11.00_Inches)
  6

 40
6.349999999999999
 41
6.349999999999999
 42
6.350005079999999
 43
6.350005079999999
 44
215.9
 45
279.4
 46
0.0
 47
0.0
 48
0.0
 49
0.0
140
0.0
141
0.0
142
1.0
143
1.0
 70
  1712
 72
     0
 73
     0
 74
     0
  7

 75
     0
147
1.0
 76
     0
 77
     2
 78
   300
148
0.0
149
0.0
100
AcDbLayout
  1
Model
 70
     1
 71
     0
 10
0.0
 20
0.0
 11
12.0
 21
9.0
 12
0.0
 22
0.0
 32
0.0
 14
-0.0000000000006025
 24
0.0
 34
0.0
 15
3451.78915969497
 25
1730.783030036062
 35
0.0
146
0.0
 13
0.0
 23
0.0
 33
0.0
 16
1.0
 26
0.0
 36
0.0
 17
0.0
 27
1.0
 37
0.0
 76
     0
330
1F
331
29
  0
MATERIAL
  5
45
102
{ACAD_REACTORS
330
43
102
}
330
43
100
AcDbMaterial
  1
ByBlock
 73
     1
 78
     1
172
     1
176
     1
270
     1
274
     1
  0
MATERIAL
  5
44
102
{ACAD_REACTORS
330
43
102
}
330
43
100
AcDbMaterial
  1
ByLayer
 73
     1
 78
     1
172
     1
176
     1
270
     1
274
     1
  0
MATERIAL
  5
46
102
{ACAD_REACTORS
330
43
102
}
330
43
100
AcDbMaterial
  1
Global
 73
     1
 78
     1
172
     1
176
     1
270
     1
274
     1
  0
MLEADERSTYLE
  5
6C
102
{ACAD_REACTORS
330
6B
102
}
330
6B
100
AcDbMLeaderStyle
179
     2
170
     2
171
     1
172
     0
 90
        2
 40
0.0
 41
0.0
173
     1
 91
-1056964608
340
14
 92
       -2
290
     1
 42
0.09
291
     1
 43
0.36
  3
Standard
 44
0.18
300

342
11
174
     1
178
     6
175
     1
176
     0
 93
-1056964608
 45
0.18
292
     0
297
     0
 46
0.18
 94
-1056964608
 47
1.0
 49
1.0
140
1.0
293
     1
141
0.0
294
     1
177
     0
142
1.0
295
     0
296
     0
143
0.125
271
     0
272
     9
273
     9
298
     0
  0
MLINESTYLE
  5
18
102
{ACAD_REACTORS
330
17
102
}
330
17
100
AcDbMlineStyle
  2
STANDARD
 70
     0
  3

 62
   256
 51
90.0
 52
90.0
 71
     2
 49
0.5
 62
   256
  6
BYLAYER
 49
-0.5
 62
   256
  6
BYLAYER
  0
ACDBPLACEHOLDER
  5
F
102
{ACAD_REACTORS
330
E
102
}
330
E
  0
SCALE
  5
48
102
{ACAD_REACTORS
330
47
102
}
330
47
100
AcDbScale
 70
     0
300
1:1
140
1.0
141
1.0
290
     1
  0
SCALE
  5
49
102
{ACAD_REACTORS
330
47
102
}
330
47
100
AcDbScale
 70
     0
300
1:2
140
1.0
141
2.0
290
     0
  0
SCALE
  5
4A
102
{ACAD_REACTORS
330
47
102
}
330
47
100
AcDbScale
 70
     0
300
1:4
140
1.0
141
4.0
290
     0
  0
SCALE
  5
4B
102
{ACAD_REACTORS
330
47
102
}
330
47
100
AcDbScale
 70
     0
300
1:5
140
1.0
141
5.0
290
     0
  0
SCALE
  5
4C
102
{ACAD_REACTORS
330
47
102
}
330
47
100
AcDbScale
 70
     0
300
1:8
140
1.0
141
8.0
290
     0
  0
SCALE
  5
4D
102
{ACAD_REACTORS
330
47
102
}
330
47
100
AcDbScale
 70
     0
300
1:10
140
1.0
141
10.0
290
     0
  0
SCALE
  5
4E
102
{ACAD_REACTORS
330
47
102
}
330
47
100
AcDbScale
 70
     0
300
1:16
140
1.0
141
16.0
290
     0
  0
SCALE
  5
4F
102
{ACAD_REACTORS
330
47
102
}
330
47
100
AcDbScale
 70
     0
300
1:20
140
1.0
141
20.0
290
     0
  0
SCALE
  5
50
102
{ACAD_REACTORS
330
47
102
}
330
47
100
AcDbScale
 70
     0
300
1:30
140
1.0
141
30.0
290
     0
  0
SCALE
  5
51
102
{ACAD_REACTORS
330
47
102
}
330
47
100
AcDbScale
 70
     0
300
1:40
140
1.0
141
40.0
290
     0
  0
SCALE
  5
52
102
{ACAD_REACTORS
330
47
102
}
330
47
100
AcDbScale
 70
     0
300
1:50
140
1.0
141
50.0
290
     0
  0
SCALE
  5
53
102
{ACAD_REACTORS
330
47
102
}
330
47
100
AcDbScale
 70
     0
300
1:100
140
1.0
141
100.0
290
     0
  0
SCALE
  5
54
102
{ACAD_REACTORS
330
47
102
}
330
47
100
AcDbScale
 70
     0
300
2:1
140
2.0
141
1.0
290
     0
  0
SCALE
  5
55
102
{ACAD_REACTORS
330
47
102
}
330
47
100
AcDbScale
 70
     0
300
4:1
140
4.0
141
1.0
290
     0
  0
SCALE
  5
56
102
{ACAD_REACTORS
330
47
102
}
330
47
100
AcDbScale
 70
     0
300
8:1
140
8.0
141
1.0
290
     0
  0
SCALE
  5
57
102
{ACAD_REACTORS
330
47
102
}
330
47
100
AcDbScale
 70
     0
300
10:1
140
10.0
141
1.0
290
     0
  0
SCALE
  5
58
102
{ACAD_REACTORS
330
47
102
}
330
47
100
AcDbScale
 70
     0
300
100:1
140
100.0
141
1.0
290
     0
  0
SCALE
  5
59
102
{ACAD_REACTORS
330
47
102
}
330
47
100
AcDbScale
 70
     0
300
1/128" = 1'-0"
140
0.0078125
141
12.0
290
     0
  0
SCALE
  5
5A
102
{ACAD_REACTORS
330
47
102
}
330
47
100
AcDbScale
 70
     0
300
1/64" = 1'-0"
140
0.015625
141
12.0
290
     0
  0
SCALE
  5
5B
102
{ACAD_REACTORS
330
47
102
}
330
47
100
AcDbScale
 70
     0
300
1/32" = 1'-0"
140
0.03125
141
12.0
290
     0
  0
SCALE
  5
5C
102
{ACAD_REACTORS
330
47
102
}
330
47
100
AcDbScale
 70
     0
300
1/16" = 1'-0"
140
0.0625
141
12.0
290
     0
  0
SCALE
  5
5D
102
{ACAD_REACTORS
330
47
102
}
330
47
100
AcDbScale
 70
     0
300
3/32" = 1'-0"
140
0.09375
141
12.0
290
     0
  0
SCALE
  5
5E
102
{ACAD_REACTORS
330
47
102
}
330
47
100
AcDbScale
 70
     0
300
1/8" = 1'-0"
140
0.125
141
12.0
290
     0
  0
SCALE
  5
5F
102
{ACAD_REACTORS
330
47
102
}
330
47
100
AcDbScale
 70
     0
300
3/16" = 1'-0"
140
0.1875
141
12.0
290
     0
  0
SCALE
  5
60
102
{ACAD_REACTORS
330
47
102
}
330
47
100
AcDbScale
 70
     0
300
1/4" = 1'-0"
140
0.25
141
12.0
290
     0
  0
SCALE
  5
61
102
{ACAD_REACTORS
330
47
102
}
330
47
100
AcDbScale
 70
     0
300
3/8" = 1'-0"
140
0.375
141
12.0
290
     0
  0
SCALE
  5
62
102
{ACAD_REACTORS
330
47
102
}
330
47
100
AcDbScale
 70
     0
300
1/2" = 1'-0"
140
0.5
141
12.0
290
     0
  0
SCALE
  5
63
102
{ACAD_REACTORS
330
47
102
}
330
47
100
AcDbScale
 70
     0
300
3/4" = 1'-0"
140
0.75
141
12.0
290
     0
  0
SCALE
  5
64
102
{ACAD_REACTORS
330
47
102
}
330
47
100
AcDbScale
 70
     0
300
1" = 1'-0"
140
1.0
141
12.0
290
     0
  0
SCALE
  5
65
102
{ACAD_REACTORS
330
47
102
}
330
47
100
AcDbScale
 70
     0
300
1-1/2" = 1'-0"
140
1.5
141
12.0
290
     0
  0
SCALE
  5
66
102
{ACAD_REACTORS
330
47
102
}
330
47
100
AcDbScale
 70
     0
300
3" = 1'-0"
140
3.0
141
12.0
290
     0
  0
SCALE
  5
67
102
{ACAD_REACTORS
330
47
102
}
330
47
100
AcDbScale
 70
     0
300
6" = 1'-0"
140
6.0
141
12.0
290
     0
  0
SCALE
  5
68
102
{ACAD_REACTORS
330
47
102
}
330
47
100
AcDbScale
 70
     0
300
1'-0" = 1'-0"
140
12.0
141
12.0
290
     0
  0
ACDBSECTIONVIEWSTYLE
  5
EC
102
{ACAD_XDICTIONARY
360
102
102
}
102
{ACAD_REACTORS
330
E9
102
}
330
E9
100
AcDbModelDocViewStyle
 70
     0
  3
Imperial24
290
     0
100
AcDbSectionViewStyle
 70
     0
 71
     0
 90
       78
 71
     1
340
11
 62
   256
 40
0.24
340
0
340
0
 62
   256
 40
0.24
300
I, O, Q, S, X, Z
 40
0.48
 90
        3
 40
0.18
 90
        1
 71
     2
340
16
 90
       25
 62
   256
340
16
 90
       50
 62
   256
 40
0.24
 40
0.0
 40
0.24
 71
     3
340
11
 62
   256
 40
0.24
 90
        1
 40
0.75
 90
        1
300
%<\AcVar ViewType \f "%tc1">% %<\AcVar ViewSectionStartId>%-%<\AcVar ViewSectionEndId>%\PSCALE %<\AcVar ViewScale \f "%sn">%
 71
     4
 62
   256
 62
   257
300
ANSI31
 40
1.0
 90
        0
290
     0
290
     0
 90
        6
 40
0.0
 40
1.570796326794896
 40
0.2617993877991494
 40
1.308996938995747
 40
-0.2617993877991494
 40
1.832595714594046
  0
TABLESTYLE
  5
6A
102
{ACAD_XDICTIONARY
360
DF
102
}
102
{ACAD_REACTORS
330
69
102
}
330
69
100
AcDbTableStyle
280
     0
  3
Standard
 70
     0
 71
     0
 40
0.06
 41
0.06
280
     0
281
     0
  7
Standard
140
0.18
170
     2
 62
     0
 63
     7
283
     0
 90
        4
 91
        0
  1

274
    -2
284
     1
 64
     0
275
    -2
285
     1
 65
     0
276
    -2
286
     1
 66
     0
277
    -2
287
     1
 67
     0
278
    -2
288
     1
 68
     0
279
    -2
289
     1
 69
     0
  7
Standard
140
0.25
170
     5
 62
     0
 63
     7
283
     0
 90
        4
 91
        0
  1

274
    -2
284
     1
 64
     0
275
    -2
285
     1
 65
     0
276
    -2
286
     1
 66
     0
277
    -2
287
     1
 67
     0
278
    -2
288
     1
 68
     0
279
    -2
289
     1
 69
     0
  7
Standard
140
0.18
170
     5
 62
     0
 63
     7
283
     0
 90
        4
 91
        0
  1

274
    -2
284
     1
 64
     0
275
    -2
285
     1
 65
     0
276
    -2
286
     1
 66
     0
277
    -2
287
     1
 67
     0
278
    -2
288
     1
 68
     0
279
    -2
289
     1
 69
     0
  0
VISUALSTYLE
  5
2F
102
{ACAD_REACTORS
330
2A
102
}
330
2A
100
AcDbVisualStyle
  2
2dWireframe
 70
     4
177
     3
291
     0
 70
    58
 90
        0
176
     1
 90
        2
176
     1
 90
        0
176
     1
 90
        0
176
     1
 40
0.6
176
     1
 40
30.0
176
     1
 62
     7
420
 16777215
176
     1
 90
        1
176
     1
 90
        4
176
     1
 62
     7
176
     1
 62
   257
176
     1
 90
        1
176
     1
 90
        1
176
     1
 40
1.0
176
     1
 90
        0
176
     1
 62
   257
176
     1
 40
1.0
176
     1
 90
        1
176
     1
 90
        6
176
     1
 90
        2
176
     1
 62
     7
176
     1
 90
        5
176
     1
 90
        0
176
     1
 90
        0
176
     1
290
     0
176
     1
 90
        1
176
     1
 40
0.0
176
     1
 90
        0
176
     1
290
     1
176
     1
290
     1
176
     1
290
     0
176
     1
290
     0
176
     1
290
     0
176
     1
290
     0
176
     1
290
     0
176
     1
290
     0
176
     1
290
     0
176
     1
 90
       50
176
     1
 40
0.0
176
     1
 40
1.0
176
     1
 90
        0
176
     1
 62
    18
420
        0
176
     1
 90
       50
176
     1
 90
        3
176
     1
 62
     5
420
      255
176
     1
290
     0
176
     1
 90
       50
176
     1
 90
       50
176
     1
 90
       50
176
     1
290
     0
176
     1
 90
       50
176
     1
 62
   256
176
     0
 40
1.0
176
     0
 90
        2
176
     1
  1
strokes_ogs.tif
176
     1
290
     0
176
     1
 40
1.0
176
     1
 40
1.0
176
     1
  0
VISUALSTYLE
  5
32
102
{ACAD_REACTORS
330
2A
102
}
330
2A
100
AcDbVisualStyle
  2
Basic
 70
     7
177
     3
291
     1
 70
    58
 90
        1
176
     1
 90
        0
176
     1
 90
        1
176
     1
 90
        0
176
     1
 40
0.6
176
     1
 40
30.0
176
     1
 62
     7
420
 16777215
176
     1
 90
        0
176
     1
 90
        4
176
     1
 62
     7
176
     1
 62
   257
176
     1
 90
        1
176
     1
 90
        1
176
     1
 40
1.0
176
     1
 90
        8
176
     1
 62
     7
176
     1
 40
1.0
176
     1
 90
        1
176
     1
 90
        6
176
     1
 90
        2
176
     1
 62
     7
176
     1
 90
        5
176
     1
 90
        0
176
     1
 90
        0
176
     1
290
     0
176
     1
 90
        1
176
     1
 40
0.0
176
     1
 90
        0
176
     1
290
     0
176
     1
290
     1
176
     1
290
     1
176
     1
290
     0
176
     1
290
     0
176
     1
290
     0
176
     1
290
     0
176
     1
290
     0
176
     1
290
     0
176
     1
 90
       50
176
     1
 40
0.0
176
     1
 40
1.0
176
     1
 90
        0
176
     1
 62
    18
420
        0
176
     1
 90
       50
176
     1
 90
        3
176
     1
 62
     5
420
      255
176
     1
290
     0
176
     1
 90
       50
176
     1
 90
       50
176
     1
 90
       50
176
     1
290
     0
176
     1
 90
       50
176
     1
 62
   256
176
     0
 40
1.0
176
     0
 90
        2
176
     1
  1
strokes_ogs.tif
176
     1
290
     0
176
     1
 40
1.0
176
     1
 40
1.0
176
     1
  0
VISUALSTYLE
  5
36
102
{ACAD_REACTORS
330
2A
102
}
330
2A
100
AcDbVisualStyle
  2
Brighten
 70
    12
177
     3
291
     1
 70
    58
 90
        2
176
     1
 90
        2
176
     1
 90
        0
176
     1
 90
        0
176
     1
 40
0.6
176
     1
 40
30.0
176
     1
 62
     7
420
 16777215
176
     1
 90
        1
176
     1
 90
        4
176
     1
 62
     7
176
     1
 62
   257
176
     1
 90
        1
176
     1
 90
        1
176
     1
 40
1.0
176
     1
 90
        8
176
     1
 62
     7
176
     1
 40
1.0
176
     1
 90
        1
176
     1
 90
        6
176
     1
 90
        2
176
     1
 62
     7
176
     1
 90
        5
176
     1
 90
        0
176
     1
 90
        0
176
     1
290
     0
176
     1
 90
        1
176
     1
 40
50.0
176
     1
 90
        0
176
     1
290
     0
176
     1
290
     1
176
     1
290
     1
176
     1
290
     0
176
     1
290
     0
176
     1
290
     0
176
     1
290
     0
176
     1
290
     0
176
     1
290
     0
176
     1
 90
       50
176
     1
 40
0.0
176
     1
 40
1.0
176
     1
 90
        0
176
     1
 62
    18
420
        0
176
     1
 90
       50
176
     1
 90
        3
176
     1
 62
     5
420
      255
176
     1
290
     0
176
     1
 90
       50
176
     1
 90
       50
176
     1
 90
       50
176
     1
290
     0
176
     1
 90
       50
176
     1
 62
   256
176
     0
 40
1.0
176
     0
 90
        2
176
     1
  1
strokes_ogs.tif
176
     1
290
     0
176
     1
 40
1.0
176
     1
 40
1.0
176
     1
  0
VISUALSTYLE
  5
3A
102
{ACAD_REACTORS
330
2A
102
}
330
2A
100
AcDbVisualStyle
  2
ColorChange
 70
    16
177
     3
291
     1
 70
    58
 90
        2
176
     1
 90
        2
176
     1
 90
        3
176
     1
 90
        0
176
     1
 40
0.6
176
     1
 40
30.0
176
     1
 62
     8
420
  8421504
176
     1
 90
        1
176
     1
 90
        4
176
     1
 62
     7
176
     1
 62
   257
176
     1
 90
        1
176
     1
 90
        1
176
     1
 40
1.0
176
     1
 90
        8
176
     1
 62
     8
420
  8421504
176
     1
 40
1.0
176
     1
 90
        1
176
     1
 90
        6
176
     1
 90
        2
176
     1
 62
     7
176
     1
 90
        5
176
     1
 90
        0
176
     1
 90
        0
176
     1
290
     0
176
     1
 90
        1
176
     1
 40
0.0
176
     1
 90
        0
176
     1
290
     0
176
     1
290
     1
176
     1
290
     1
176
     1
290
     0
176
     1
290
     0
176
     1
290
     0
176
     1
290
     0
176
     1
290
     0
176
     1
290
     0
176
     1
 90
       50
176
     1
 40
0.0
176
     1
 40
1.0
176
     1
 90
        0
176
     1
 62
    18
420
        0
176
     1
 90
       50
176
     1
 90
        3
176
     1
 62
     5
420
      255
176
     1
290
     0
176
     1
 90
       50
176
     1
 90
       50
176
     1
 90
       50
176
     1
290
     0
176
     1
 90
       50
176
     1
 62
   256
176
     0
 40
1.0
176
     0
 90
        2
176
     1
  1
strokes_ogs.tif
176
     1
290
     0
176
     1
 40
1.0
176
     1
 40
1.0
176
     1
  0
VISUALSTYLE
  5
34
102
{ACAD_REACTORS
330
2A
102
}
330
2A
100
AcDbVisualStyle
  2
Conceptual
 70
     9
177
     3
291
     0
 70
    58
 90
        3
176
     1
 90
        2
176
     1
 90
        0
176
     1
 90
        0
176
     1
 40
0.6
176
     1
 40
30.0
176
     1
 62
     7
420
 16777215
176
     1
 90
        2
176
     1
 90
        2
176
     1
 62
     7
176
     1
 62
   257
176
     1
 90
        1
176
     1
 90
        1
176
     1
 40
179.0
176
     1
 90
        8
176
     1
 62
     7
176
     1
 40
1.0
176
     1
 90
        1
176
     1
 90
        6
176
     1
 90
        2
176
     1
 62
     7
176
     1
 90
        3
176
     1
 90
        0
176
     1
 90
        0
176
     1
290
     0
176
     1
 90
        1
176
     1
 40
0.0
176
     1
 90
        0
176
     1
290
     0
176
     1
290
     1
176
     1
290
     1
176
     1
290
     0
176
     1
290
     0
176
     1
290
     0
176
     1
290
     0
176
     1
290
     0
176
     1
290
     0
176
     1
 90
       50
176
     1
 40
0.0
176
     1
 40
1.0
176
     1
 90
        0
176
     1
 62
    18
420
        0
176
     1
 90
       50
176
     1
 90
        3
176
     1
 62
     5
420
      255
176
     1
290
     0
176
     1
 90
       50
176
     1
 90
       50
176
     1
 90
       50
176
     1
290
     0
176
     1
 90
       50
176
     1
 62
   256
176
     0
 40
1.0
176
     0
 90
        2
176
     1
  1
strokes_ogs.tif
176
     1
290
     0
176
     1
 40
1.0
176
     1
 40
1.0
176
     1
  0
VISUALSTYLE
  5
35
102
{ACAD_REACTORS
330
2A
102
}
330
2A
100
AcDbVisualStyle
  2
Dim
 70
    11
177
     3
291
     1
 70
    58
 90
        2
176
     1
 90
        2
176
     1
 90
        0
176
     1
 90
        0
176
     1
 40
0.6
176
     1
 40
30.0
176
     1
 62
     7
420
 16777215
176
     1
 90
        1
176
     1
 90
        4
176
     1
 62
     7
176
     1
 62
   257
176
     1
 90
        1
176
     1
 90
        1
176
     1
 40
1.0
176
     1
 90
        8
176
     1
 62
     7
176
     1
 40
1.0
176
     1
 90
        1
176
     1
 90
        6
176
     1
 90
        2
176
     1
 62
     7
176
     1
 90
        5
176
     1
 90
        0
176
     1
 90
        0
176
     1
290
     0
176
     1
 90
        1
176
     1
 40
-50.0
176
     1
 90
        0
176
     1
290
     0
176
     1
290
     1
176
     1
290
     1
176
     1
290
     0
176
     1
290
     0
176
     1
290
     0
176
     1
290
     0
176
     1
290
     0
176
     1
290
     0
176
     1
 90
       50
176
     1
 40
0.0
176
     1
 40
1.0
176
     1
 90
        0
176
     1
 62
    18
420
        0
176
     1
 90
       50
176
     1
 90
        3
176
     1
 62
     5
420
      255
176
     1
290
     0
176
     1
 90
       50
176
     1
 90
       50
176
     1
 90
       50
176
     1
290
     0
176
     1
 90
       50
176
     1
 62
   256
176
     0
 40
1.0
176
     0
 90
        2
176
     1
  1
strokes_ogs.tif
176
     1
290
     0
176
     1
 40
1.0
176
     1
 40
1.0
176
     1
  0
VISUALSTYLE
  5
3D
102
{ACAD_REACTORS
330
2A
102
}
330
2A
100
AcDbVisualStyle
  2
EdgeColorOff
 70
    22
177
     3
291
     1
 70
    58
 90
        2
176
     0
 90
        2
176
     0
 90
        0
176
     0
 90
        0
176
     0
 40
0.6
176
     0
 40
30.0
176
     0
 62
     7
420
 16777215
176
     0
 90
        1
176
     0
 90
        4
176
     0
 62
     7
176
     0
 62
   257
176
     0
 90
        1
176
     0
 90
        1
176
     0
 40
1.0
176
     0
 90
        8
176
     2
 62
     7
176
     0
 40
1.0
176
     0
 90
        1
176
     0
 90
        6
176
     0
 90
        2
176
     0
 62
     7
176
     0
 90
        5
176
     0
 90
        0
176
     0
 90
        0
176
     0
290
     0
176
     0
 90
        1
176
     0
 40
0.0
176
     0
 90
        0
176
     0
290
     0
176
     0
290
     1
176
     0
290
     1
176
     0
290
     0
176
     0
290
     0
176
     0
290
     0
176
     0
290
     0
176
     0
290
     0
176
     0
290
     0
176
     0
 90
       50
176
     0
 40
0.0
176
     0
 40
1.0
176
     0
 90
        0
176
     0
 62
    18
420
        0
176
     0
 90
       50
176
     0
 90
        3
176
     0
 62
     5
420
      255
176
     0
290
     0
176
     0
 90
       50
176
     0
 90
       50
176
     0
 90
       50
176
     0
290
     0
176
     0
 90
       50
176
     0
 62
   256
176
     0
 40
1.0
176
     0
 90
        2
176
     0
  1
strokes_ogs.tif
176
     0
290
     0
176
     0
 40
1.0
176
     0
 40
1.0
176
     0
  0
VISUALSTYLE
  5
39
102
{ACAD_REACTORS
330
2A
102
}
330
2A
100
AcDbVisualStyle
  2
Facepattern
 70
    15
177
     3
291
     1
 70
    58
 90
        2
176
     1
 90
        2
176
     1
 90
        0
176
     1
 90
        0
176
     1
 40
0.6
176
     1
 40
30.0
176
     1
 62
     7
420
 16777215
176
     1
 90
        1
176
     1
 90
        4
176
     1
 62
     7
176
     1
 62
   257
176
     1
 90
        1
176
     1
 90
        1
176
     1
 40
1.0
176
     1
 90
        8
176
     1
 62
     7
176
     1
 40
1.0
176
     1
 90
        1
176
     1
 90
        6
176
     1
 90
        2
176
     1
 62
     7
176
     1
 90
        5
176
     1
 90
        0
176
     1
 90
        0
176
     1
290
     0
176
     1
 90
        1
176
     1
 40
0.0
176
     1
 90
        0
176
     1
290
     0
176
     1
290
     1
176
     1
290
     1
176
     1
290
     0
176
     1
290
     0
176
     1
290
     0
176
     1
290
     0
176
     1
290
     0
176
     1
290
     0
176
     1
 90
       50
176
     1
 40
0.0
176
     1
 40
1.0
176
     1
 90
        0
176
     1
 62
    18
420
        0
176
     1
 90
       50
176
     1
 90
        3
176
     1
 62
     5
420
      255
176
     1
290
     0
176
     1
 90
       50
176
     1
 90
       50
176
     1
 90
       50
176
     1
290
     0
176
     1
 90
       50
176
     1
 62
   256
176
     0
 40
1.0
176
     0
 90
        2
176
     1
  1
strokes_ogs.tif
176
     1
290
     0
176
     1
 40
1.0
176
     1
 40
1.0
176
     1
  0
VISUALSTYLE
  5
2B
102
{ACAD_REACTORS
330
2A
102
}
330
2A
100
AcDbVisualStyle
  2
Flat
 70
     0
177
     3
291
     1
 70
    58
 90
        2
176
     1
 90
        1
176
     1
 90
        1
176
     1
 90
        2
176
     1
 40
0.6
176
     1
 40
30.0
176
     1
 62
     7
420
 16777215
176
     1
 90
        0
176
     1
 90
        0
176
     1
 62
     7
176
     1
 62
   257
176
     1
 90
        1
176
     1
 90
        1
176
     1
 40
1.0
176
     1
 90
        8
176
     1
 62
     7
176
     1
 40
1.0
176
     1
 90
        1
176
     1
 90
        6
176
     1
 90
        2
176
     1
 62
     7
176
     1
 90
        5
176
     1
 90
        0
176
     1
 90
        0
176
     1
290
     0
176
     1
 90
       13
176
     1
 40
0.0
176
     1
 90
        0
176
     1
290
     0
176
     1
290
     1
176
     1
290
     1
176
     1
290
     0
176
     1
290
     0
176
     1
290
     0
176
     1
290
     0
176
     1
290
     0
176
     1
290
     0
176
     1
 90
       50
176
     1
 40
0.0
176
     1
 40
1.0
176
     1
 90
        0
176
     1
 62
    18
420
        0
176
     1
 90
       50
176
     1
 90
        3
176
     1
 62
     5
420
      255
176
     1
290
     0
176
     1
 90
       50
176
     1
 90
       50
176
     1
 90
       50
176
     1
290
     0
176
     1
 90
       50
176
     1
 62
   256
176
     0
 40
1.0
176
     0
 90
        2
176
     1
  1
strokes_ogs.tif
176
     1
290
     0
176
     1
 40
1.0
176
     1
 40
1.0
176
     1
  0
VISUALSTYLE
  5
2C
102
{ACAD_REACTORS
330
2A
102
}
330
2A
100
AcDbVisualStyle
  2
FlatWithEdges
 70
     1
177
     3
291
     1
 70
    58
 90
        2
176
     1
 90
        1
176
     1
 90
        1
176
     1
 90
        2
176
     1
 40
0.6
176
     1
 40
30.0
176
     1
 62
     7
420
 16777215
176
     1
 90
        1
176
     1
 90
        0
176
     1
 62
     7
176
     1
 62
   257
176
     1
 90
        1
176
     1
 90
        1
176
     1
 40
1.0
176
     1
 90
        0
176
     1
 62
   257
176
     1
 40
1.0
176
     1
 90
        1
176
     1
 90
        6
176
     1
 90
        2
176
     1
 62
     7
176
     1
 90
        5
176
     1
 90
        0
176
     1
 90
        0
176
     1
290
     0
176
     1
 90
       13
176
     1
 40
0.0
176
     1
 90
        0
176
     1
290
     0
176
     1
290
     1
176
     1
290
     1
176
     1
290
     0
176
     1
290
     0
176
     1
290
     0
176
     1
290
     0
176
     1
290
     0
176
     1
290
     0
176
     1
 90
       50
176
     1
 40
0.0
176
     1
 40
1.0
176
     1
 90
        0
176
     1
 62
    18
420
        0
176
     1
 90
       50
176
     1
 90
        3
176
     1
 62
     5
420
      255
176
     1
290
     0
176
     1
 90
       50
176
     1
 90
       50
176
     1
 90
       50
176
     1
290
     0
176
     1
 90
       50
176
     1
 62
   256
176
     0
 40
1.0
176
     0
 90
        2
176
     1
  1
strokes_ogs.tif
176
     1
290
     0
176
     1
 40
1.0
176
     1
 40
1.0
176
     1
  0
VISUALSTYLE
  5
2D
102
{ACAD_REACTORS
330
2A
102
}
330
2A
100
AcDbVisualStyle
  2
Gouraud
 70
     2
177
     3
291
     1
 70
    58
 90
        2
176
     1
 90
        2
176
     1
 90
        1
176
     1
 90
        2
176
     1
 40
0.6
176
     1
 40
30.0
176
     1
 62
     7
420
 16777215
176
     1
 90
        0
176
     1
 90
        0
176
     1
 62
     7
176
     1
 62
   257
176
     1
 90
        1
176
     1
 90
        1
176
     1
 40
1.0
176
     1
 90
        0
176
     1
 62
     7
176
     1
 40
1.0
176
     1
 90
        1
176
     1
 90
        6
176
     1
 90
        2
176
     1
 62
     7
176
     1
 90
        5
176
     1
 90
        0
176
     1
 90
        0
176
     1
290
     0
176
     1
 90
       13
176
     1
 40
0.0
176
     1
 90
        0
176
     1
290
     0
176
     1
290
     1
176
     1
290
     1
176
     1
290
     0
176
     1
290
     0
176
     1
290
     0
176
     1
290
     0
176
     1
290
     0
176
     1
290
     0
176
     1
 90
       50
176
     1
 40
0.0
176
     1
 40
1.0
176
     1
 90
        0
176
     1
 62
    18
420
        0
176
     1
 90
       50
176
     1
 90
        3
176
     1
 62
     5
420
      255
176
     1
290
     0
176
     1
 90
       50
176
     1
 90
       50
176
     1
 90
       50
176
     1
290
     0
176
     1
 90
       50
176
     1
 62
   256
176
     0
 40
1.0
176
     0
 90
        2
176
     1
  1
strokes_ogs.tif
176
     1
290
     0
176
     1
 40
1.0
176
     1
 40
1.0
176
     1
  0
VISUALSTYLE
  5
2E
102
{ACAD_REACTORS
330
2A
102
}
330
2A
100
AcDbVisualStyle
  2
GouraudWithEdges
 70
     3
177
     3
291
     1
 70
    58
 90
        2
176
     1
 90
        2
176
     1
 90
        1
176
     1
 90
        2
176
     1
 40
0.6
176
     1
 40
30.0
176
     1
 62
     7
420
 16777215
176
     1
 90
        1
176
     1
 90
        0
176
     1
 62
     7
176
     1
 62
   257
176
     1
 90
        1
176
     1
 90
        1
176
     1
 40
1.0
176
     1
 90
        0
176
     1
 62
   257
176
     1
 40
1.0
176
     1
 90
        1
176
     1
 90
        6
176
     1
 90
        2
176
     1
 62
     7
176
     1
 90
        5
176
     1
 90
        0
176
     1
 90
        0
176
     1
290
     0
176
     1
 90
       13
176
     1
 40
0.0
176
     1
 90
        0
176
     1
290
     0
176
     1
290
     1
176
     1
290
     1
176
     1
290
     0
176
     1
290
     0
176
     1
290
     0
176
     1
290
     0
176
     1
290
     0
176
     1
290
     0
176
     1
 90
       50
176
     1
 40
0.0
176
     1
 40
1.0
176
     1
 90
        0
176
     1
 62
    18
420
        0
176
     1
 90
       50
176
     1
 90
        3
176
     1
 62
     5
420
      255
176
     1
290
     0
176
     1
 90
       50
176
     1
 90
       50
176
     1
 90
       50
176
     1
290
     0
176
     1
 90
       50
176
     1
 62
   256
176
     0
 40
1.0
176
     0
 90
        2
176
     1
  1
strokes_ogs.tif
176
     1
290
     0
176
     1
 40
1.0
176
     1
 40
1.0
176
     1
  0
VISUALSTYLE
  5
31
102
{ACAD_REACTORS
330
2A
102
}
330
2A
100
AcDbVisualStyle
  2
Hidden
 70
     6
177
     3
291
     0
 70
    58
 90
        1
176
     1
 90
        2
176
     1
 90
        2
176
     1
 90
        0
176
     1
 40
0.6
176
     1
 40
30.0
176
     1
 62
     7
420
 16777215
176
     1
 90
        2
176
     1
 90
        2
176
     1
 62
     7
176
     1
 62
   257
176
     1
 90
        2
176
     1
 90
        1
176
     1
 40
40.0
176
     1
 90
        0
176
     1
 62
   257
176
     1
 40
1.0
176
     1
 90
        1
176
     1
 90
        6
176
     1
 90
        2
176
     1
 62
     7
176
     1
 90
        3
176
     1
 90
        0
176
     1
 90
        0
176
     1
290
     0
176
     1
 90
        1
176
     1
 40
0.0
176
     1
 90
        0
176
     1
290
     0
176
     1
290
     1
176
     1
290
     1
176
     1
290
     0
176
     1
290
     0
176
     1
290
     0
176
     1
290
     0
176
     1
290
     0
176
     1
290
     0
176
     1
 90
       50
176
     1
 40
0.0
176
     1
 40
1.0
176
     1
 90
        0
176
     1
 62
    18
420
        0
176
     1
 90
       50
176
     1
 90
        3
176
     1
 62
     5
420
      255
176
     1
290
     0
176
     1
 90
       50
176
     1
 90
       50
176
     1
 90
       50
176
     1
290
     0
176
     1
 90
       50
176
     1
 62
   256
176
     0
 40
1.0
176
     0
 90
        2
176
     1
  1
strokes_ogs.tif
176
     1
290
     0
176
     1
 40
1.0
176
     1
 40
1.0
176
     1
  0
VISUALSTYLE
  5
3B
102
{ACAD_REACTORS
330
2A
102
}
330
2A
100
AcDbVisualStyle
  2
JitterOff
 70
    20
177
     3
291
     1
 70
    58
 90
        2
176
     0
 90
        2
176
     0
 90
        0
176
     0
 90
        0
176
     0
 40
0.6
176
     0
 40
30.0
176
     0
 62
     7
420
 16777215
176
     0
 90
        1
176
     0
 90
        4
176
     0
 62
     7
176
     0
 62
   257
176
     0
 90
        1
176
     0
 90
        1
176
     0
 40
1.0
176
     0
 90
       10
176
     2
 62
     7
176
     0
 40
1.0
176
     0
 90
        1
176
     0
 90
        6
176
     0
 90
        2
176
     0
 62
     7
176
     0
 90
        5
176
     0
 90
        0
176
     0
 90
        0
176
     0
290
     0
176
     0
 90
        1
176
     0
 40
0.0
176
     0
 90
        0
176
     0
290
     0
176
     0
290
     1
176
     0
290
     1
176
     0
290
     0
176
     0
290
     0
176
     0
290
     0
176
     0
290
     0
176
     0
290
     0
176
     0
290
     0
176
     0
 90
       50
176
     0
 40
0.0
176
     0
 40
1.0
176
     0
 90
        0
176
     0
 62
    18
420
        0
176
     0
 90
       50
176
     0
 90
        3
176
     0
 62
     5
420
      255
176
     0
290
     0
176
     0
 90
       50
176
     0
 90
       50
176
     0
 90
       50
176
     0
290
     0
176
     0
 90
       50
176
     0
 62
   256
176
     0
 40
1.0
176
     0
 90
        2
176
     0
  1
strokes_ogs.tif
176
     0
290
     0
176
     0
 40
1.0
176
     0
 40
1.0
176
     0
  0
VISUALSTYLE
  5
38
102
{ACAD_REACTORS
330
2A
102
}
330
2A
100
AcDbVisualStyle
  2
Linepattern
 70
    14
177
     3
291
     1
 70
    58
 90
        2
176
     1
 90
        2
176
     1
 90
        0
176
     1
 90
        0
176
     1
 40
0.6
176
     1
 40
30.0
176
     1
 62
     7
420
 16777215
176
     1
 90
        1
176
     1
 90
        4
176
     1
 62
     7
176
     1
 62
   257
176
     1
 90
        7
176
     1
 90
        7
176
     1
 40
1.0
176
     1
 90
        8
176
     1
 62
     7
176
     1
 40
1.0
176
     1
 90
        1
176
     1
 90
        6
176
     1
 90
        2
176
     1
 62
     7
176
     1
 90
        5
176
     1
 90
        0
176
     1
 90
        0
176
     1
290
     0
176
     1
 90
        1
176
     1
 40
0.0
176
     1
 90
        0
176
     1
290
     0
176
     1
290
     1
176
     1
290
     1
176
     1
290
     0
176
     1
290
     0
176
     1
290
     0
176
     1
290
     0
176
     1
290
     0
176
     1
290
     0
176
     1
 90
       50
176
     1
 40
0.0
176
     1
 40
1.0
176
     1
 90
        0
176
     1
 62
    18
420
        0
176
     1
 90
       50
176
     1
 90
        3
176
     1
 62
     5
420
      255
176
     1
290
     0
176
     1
 90
       50
176
     1
 90
       50
176
     1
 90
       50
176
     1
290
     0
176
     1
 90
       50
176
     1
 62
   256
176
     0
 40
1.0
176
     0
 90
        2
176
     1
  1
strokes_ogs.tif
176
     1
290
     0
176
     1
 40
1.0
176
     1
 40
1.0
176
     1
  0
VISUALSTYLE
  5
3C
102
{ACAD_REACTORS
330
2A
102
}
330
2A
100
AcDbVisualStyle
  2
OverhangOff
 70
    21
177
     3
291
     1
 70
    58
 90
        2
176
     0
 90
        2
176
     0
 90
        0
176
     0
 90
        0
176
     0
 40
0.6
176
     0
 40
30.0
176
     0
 62
     7
420
 16777215
176
     0
 90
        1
176
     0
 90
        4
176
     0
 62
     7
176
     0
 62
   257
176
     0
 90
        1
176
     0
 90
        1
176
     0
 40
1.0
176
     0
 90
        9
176
     2
 62
     7
176
     0
 40
1.0
176
     0
 90
        1
176
     0
 90
        6
176
     0
 90
        2
176
     0
 62
     7
176
     0
 90
        5
176
     0
 90
        0
176
     0
 90
        0
176
     0
290
     0
176
     0
 90
        1
176
     0
 40
0.0
176
     0
 90
        0
176
     0
290
     0
176
     0
290
     1
176
     0
290
     1
176
     0
290
     0
176
     0
290
     0
176
     0
290
     0
176
     0
290
     0
176
     0
290
     0
176
     0
290
     0
176
     0
 90
       50
176
     0
 40
0.0
176
     0
 40
1.0
176
     0
 90
        0
176
     0
 62
    18
420
        0
176
     0
 90
       50
176
     0
 90
        3
176
     0
 62
     5
420
      255
176
     0
290
     0
176
     0
 90
       50
176
     0
 90
       50
176
     0
 90
       50
176
     0
290
     0
176
     0
 90
       50
176
     0
 62
   256
176
     0
 40
1.0
176
     0
 90
        2
176
     0
  1
strokes_ogs.tif
176
     0
290
     0
176
     0
 40
1.0
176
     0
 40
1.0
176
     0
  0
VISUALSTYLE
  5
33
102
{ACAD_REACTORS
330
2A
102
}
330
2A
100
AcDbVisualStyle
  2
Realistic
 70
     8
177
     3
291
     0
 70
    58
 90
        2
176
     1
 90
        3
176
     1
 90
        0
176
     1
 90
        2
176
     1
 40
0.6
176
     1
 40
30.0
176
     1
 62
     7
420
 16777215
176
     1
 90
        0
176
     1
 90
        0
176
     1
 62
     7
176
     1
 62
   257
176
     1
 90
        1
176
     1
 90
        1
176
     1
 40
1.0
176
     1
 90
        8
176
     1
 62
   257
176
     1
 40
1.0
176
     1
 90
        1
176
     1
 90
        6
176
     1
 90
        2
176
     1
 62
     7
176
     1
 90
        3
176
     1
 90
        0
176
     1
 90
        0
176
     1
290
     0
176
     1
 90
       13
176
     1
 40
0.0
176
     1
 90
        0
176
     1
290
     0
176
     1
290
     1
176
     1
290
     1
176
     1
290
     0
176
     1
290
     0
176
     1
290
     0
176
     1
290
     0
176
     1
290
     0
176
     1
290
     0
176
     1
 90
       50
176
     1
 40
0.0
176
     1
 40
1.0
176
     1
 90
        0
176
     1
 62
    18
420
        0
176
     1
 90
       50
176
     1
 90
        3
176
     1
 62
     5
420
      255
176
     1
290
     0
176
     1
 90
       50
176
     1
 90
       50
176
     1
 90
       50
176
     1
290
     0
176
     1
 90
       50
176
     1
 62
   256
176
     0
 40
1.0
176
     0
 90
        2
176
     1
  1
strokes_ogs.tif
176
     1
290
     0
176
     1
 40
1.0
176
     1
 40
1.0
176
     1
  0
VISUALSTYLE
  5
42
102
{ACAD_REACTORS
330
2A
102
}
330
2A
100
AcDbVisualStyle
  2
Shaded
 70
    27
177
     3
291
     0
 70
    58
 90
        2
176
     1
 90
        2
176
     1
 90
        1
176
     1
 90
        2
176
     1
 40
0.6
176
     1
 40
30.0
176
     1
 62
     7
420
 16777215
176
     1
 90
        0
176
     1
 90
        4
176
     1
 62
     7
176
     1
 62
   257
176
     1
 90
        1
176
     1
 90
        1
176
     1
 40
1.0
176
     1
 90
        8
176
     1
 62
   257
176
     1
 40
1.0
176
     1
 90
        1
176
     1
 90
        6
176
     1
 90
        2
176
     1
 62
     8
420
  7895160
176
     1
 90
        3
176
     1
 90
        0
176
     1
 90
        0
176
     1
290
     0
176
     1
 90
        5
176
     1
 40
0.0
176
     1
 90
        0
176
     1
290
     0
176
     1
290
     1
176
     1
290
     1
176
     1
290
     0
176
     1
290
     0
176
     1
290
     0
176
     1
290
     0
176
     1
290
     0
176
     1
290
     0
176
     1
 90
       50
176
     1
 40
0.0
176
     1
 40
1.0
176
     1
 90
        0
176
     1
 62
    18
420
        0
176
     1
 90
       50
176
     1
 90
        3
176
     1
 62
     5
420
      255
176
     1
290
     0
176
     1
 90
       50
176
     1
 90
       50
176
     1
 90
       50
176
     1
290
     0
176
     1
 90
       50
176
     1
 62
   256
176
     0
 40
1.0
176
     0
 90
        2
176
     1
  1
strokes_ogs.tif
176
     1
290
     0
176
     1
 40
1.0
176
     1
 40
1.0
176
     1
  0
VISUALSTYLE
  5
41
102
{ACAD_REACTORS
330
2A
102
}
330
2A
100
AcDbVisualStyle
  2
Shaded with edges
 70
    26
177
     3
291
     0
 70
    58
 90
        2
176
     1
 90
        2
176
     1
 90
        1
176
     1
 90
        2
176
     1
 40
0.6
176
     1
 40
30.0
176
     1
 62
     7
420
 16777215
176
     1
 90
        1
176
     1
 90
       10
176
     1
 62
     7
176
     1
 62
   257
176
     1
 90
        2
176
     1
 90
        1
176
     1
 40
1.0
176
     1
 90
        8
176
     1
 62
   257
176
     1
 40
1.0
176
     1
 90
        1
176
     1
 90
        6
176
     1
 90
        2
176
     1
 62
     7
176
     1
 90
        3
176
     1
 90
        0
176
     1
 90
        0
176
     1
290
     0
176
     1
 90
        5
176
     1
 40
0.0
176
     1
 90
        0
176
     1
290
     0
176
     1
290
     1
176
     1
290
     1
176
     1
290
     0
176
     1
290
     0
176
     1
290
     0
176
     1
290
     0
176
     1
290
     0
176
     1
290
     0
176
     1
 90
       50
176
     1
 40
0.0
176
     1
 40
1.0
176
     1
 90
        0
176
     1
 62
    18
420
        0
176
     1
 90
       50
176
     1
 90
        3
176
     1
 62
     5
420
      255
176
     1
290
     0
176
     1
 90
       50
176
     1
 90
       50
176
     1
 90
       50
176
     1
290
     0
176
     1
 90
       50
176
     1
 62
   256
176
     0
 40
1.0
176
     0
 90
        2
176
     1
  1
strokes_ogs.tif
176
     1
290
     0
176
     1
 40
1.0
176
     1
 40
1.0
176
     1
  0
VISUALSTYLE
  5
3E
102
{ACAD_REACTORS
330
2A
102
}
330
2A
100
AcDbVisualStyle
  2
Shades of Gray
 70
    23
177
     3
291
     0
 70
    58
 90
        2
176
     1
 90
        2
176
     1
 90
        3
176
     1
 90
        0
176
     1
 40
0.6
176
     1
 40
30.0
176
     1
 62
     7
420
 16777215
176
     1
 90
        2
176
     1
 90
        2
176
     1
 62
     7
176
     1
 62
     7
176
     1
 90
        1
176
     1
 90
        1
176
     1
 40
40.0
176
     1
 90
        8
176
     1
 62
     7
176
     1
 40
1.0
176
     1
 90
        1
176
     1
 90
        6
176
     1
 90
        2
176
     1
 62
     7
176
     1
 90
        3
176
     1
 90
        0
176
     1
 90
        0
176
     1
290
     0
176
     1
 90
        1
176
     1
 40
0.0
176
     1
 90
        0
176
     1
290
     0
176
     1
290
     1
176
     1
290
     1
176
     1
290
     0
176
     1
290
     0
176
     1
290
     0
176
     1
290
     0
176
     1
290
     0
176
     1
290
     0
176
     1
 90
       50
176
     1
 40
0.0
176
     1
 40
1.0
176
     1
 90
        0
176
     1
 62
    18
420
        0
176
     1
 90
       50
176
     1
 90
        3
176
     1
 62
     5
420
      255
176
     1
290
     0
176
     1
 90
       50
176
     1
 90
       50
176
     1
 90
       50
176
     1
290
     0
176
     1
 90
       50
176
     1
 62
   256
176
     0
 40
1.0
176
     0
 90
        2
176
     1
  1
strokes_ogs.tif
176
     1
290
     0
176
     1
 40
1.0
176
     1
 40
1.0
176
     1
  0
VISUALSTYLE
  5
3F
102
{ACAD_REACTORS
330
2A
102
}
330
2A
100
AcDbVisualStyle
  2
Sketchy
 70
    24
177
     3
291
     0
 70
    58
 90
        1
176
     1
 90
        2
176
     1
 90
        2
176
     1
 90
        0
176
     1
 40
0.6
176
     1
 40
30.0
176
     1
 62
     7
420
 16777215
176
     1
 90
        2
176
     1
 90
        2
176
     1
 62
     7
176
     1
 62
     7
176
     1
 90
        1
176
     1
 90
        1
176
     1
 40
40.0
176
     1
 90
       11
176
     1
 62
     7
176
     1
 40
1.0
176
     1
 90
        1
176
     1
 90
        6
176
     1
 90
        2
176
     1
 62
     7
176
     1
 90
        6
176
     1
 90
        0
176
     1
 90
        0
176
     1
290
     0
176
     1
 90
        1
176
     1
 40
0.0
176
     1
 90
        0
176
     1
290
     0
176
     1
290
     1
176
     1
290
     1
176
     1
290
     0
176
     1
290
     0
176
     1
290
     0
176
     1
290
     0
176
     1
290
     0
176
     1
290
     0
176
     1
 90
       50
176
     1
 40
0.0
176
     1
 40
1.0
176
     1
 90
        0
176
     1
 62
    18
420
        0
176
     1
 90
       50
176
     1
 90
        3
176
     1
 62
     5
420
      255
176
     1
290
     0
176
     1
 90
       50
176
     1
 90
       50
176
     1
 90
       50
176
     1
290
     0
176
     1
 90
       50
176
     1
 62
   256
176
     0
 40
1.0
176
     0
 90
        2
176
     1
  1
strokes_ogs.tif
176
     1
290
     0
176
     1
 40
1.0
176
     1
 40
1.0
176
     1
  0
VISUALSTYLE
  5
37
102
{ACAD_REACTORS
330
2A
102
}
330
2A
100
AcDbVisualStyle
  2
Thicken
 70
    13
177
     3
291
     1
 70
    58
 90
        2
176
     1
 90
        2
176
     1
 90
        0
176
     1
 90
        0
176
     1
 40
0.6
176
     1
 40
30.0
176
     1
 62
     7
420
 16777215
176
     1
 90
        1
176
     1
 90
        4
176
     1
 62
     7
176
     1
 62
   257
176
     1
 90
        1
176
     1
 90
        1
176
     1
 40
1.0
176
     1
 90
       12
176
     1
 62
     7
176
     1
 40
1.0
176
     1
 90
        1
176
     1
 90
        6
176
     1
 90
        2
176
     1
 62
     7
176
     1
 90
        5
176
     1
 90
        0
176
     1
 90
        0
176
     1
290
     0
176
     1
 90
        1
176
     1
 40
0.0
176
     1
 90
        0
176
     1
290
     0
176
     1
290
     1
176
     1
290
     1
176
     1
290
     0
176
     1
290
     0
176
     1
290
     0
176
     1
290
     0
176
     1
290
     0
176
     1
290
     0
176
     1
 90
       50
176
     1
 40
0.0
176
     1
 40
1.0
176
     1
 90
        0
176
     1
 62
    18
420
        0
176
     1
 90
       50
176
     1
 90
        3
176
     1
 62
     5
420
      255
176
     1
290
     0
176
     1
 90
       50
176
     1
 90
       50
176
     1
 90
       50
176
     1
290
     0
176
     1
 90
       50
176
     1
 62
   256
176
     0
 40
1.0
176
     0
 90
        2
176
     1
  1
strokes_ogs.tif
176
     1
290
     0
176
     1
 40
1.0
176
     1
 40
1.0
176
     1
  0
VISUALSTYLE
  5
30
102
{ACAD_REACTORS
330
2A
102
}
330
2A
100
AcDbVisualStyle
  2
Wireframe
 70
     5
177
     3
291
     0
 70
    58
 90
        0
176
     1
 90
        2
176
     1
 90
        0
176
     1
 90
        0
176
     1
 40
0.6
176
     1
 40
30.0
176
     1
 62
     7
420
 16777215
176
     1
 90
        1
176
     1
 90
        4
176
     1
 62
     7
176
     1
 62
   257
176
     1
 90
        1
176
     1
 90
        1
176
     1
 40
1.0
176
     1
 90
        0
176
     1
 62
   257
176
     1
 40
1.0
176
     1
 90
        1
176
     1
 90
        6
176
     1
 90
        2
176
     1
 62
     7
176
     1
 90
        3
176
     1
 90
        0
176
     1
 90
        0
176
     1
290
     0
176
     1
 90
        1
176
     1
 40
0.0
176
     1
 90
        0
176
     1
290
     0
176
     1
290
     1
176
     1
290
     1
176
     1
290
     0
176
     1
290
     0
176
     1
290
     0
176
     1
290
     0
176
     1
290
     0
176
     1
290
     0
176
     1
 90
       50
176
     1
 40
0.0
176
     1
 40
1.0
176
     1
 90
        0
176
     1
 62
    18
420
        0
176
     1
 90
       50
176
     1
 90
        3
176
     1
 62
     5
420
      255
176
     1
290
     0
176
     1
 90
       50
176
     1
 90
       50
176
     1
 90
       50
176
     1
290
     0
176
     1
 90
       50
176
     1
 62
   256
176
     0
 40
1.0
176
     0
 90
        2
176
     1
  1
strokes_ogs.tif
176
     1
290
     0
176
     1
 40
1.0
176
     1
 40
1.0
176
     1
  0
VISUALSTYLE
  5
40
102
{ACAD_REACTORS
330
2A
102
}
330
2A
100
AcDbVisualStyle
  2
X-Ray
 70
    25
177
     3
291
     0
 70
    58
 90
        2
176
     1
 90
        2
176
     1
 90
        1
176
     1
 90
        1
176
     1
 40
0.5
176
     1
 40
30.0
176
     1
 62
     7
420
 16777215
176
     1
 90
        1
176
     1
 90
        0
176
     1
 62
     7
176
     1
 62
   257
176
     1
 90
        1
176
     1
 90
        1
176
     1
 40
1.0
176
     1
 90
        8
176
     1
 62
     7
176
     1
 40
1.0
176
     1
 90
        1
176
     1
 90
        6
176
     1
 90
        2
176
     1
 62
     7
176
     1
 90
        3
176
     1
 90
        0
176
     1
 90
        0
176
     1
290
     0
176
     1
 90
       13
176
     1
 40
0.0
176
     1
 90
        0
176
     1
290
     0
176
     1
290
     1
176
     1
290
     1
176
     1
290
     0
176
     1
290
     0
176
     1
290
     0
176
     1
290
     0
176
     1
290
     0
176
     1
290
     0
176
     1
 90
       50
176
     1
 40
0.0
176
     1
 40
1.0
176
     1
 90
        0
176
     1
 62
    18
420
        0
176
     1
 90
       50
176
     1
 90
        3
176
     1
 62
     5
420
      255
176
     1
290
     0
176
     1
 90
       50
176
     1
 90
       50
176
     1
 90
       50
176
     1
290
     0
176
     1
 90
       50
176
     1
 62
   256
176
     0
 40
1.0
176
     0
 90
        2
176
     1
  1
strokes_ogs.tif
176
     1
290
     0
176
     1
 40
1.0
176
     1
 40
1.0
176
     1
  0
DICTIONARYVAR
  5
A6
102
{ACAD_REACTORS
330
A5
102
}
330
A5
100
DictionaryVariables
280
     0
  1
1:1
  0
DICTIONARYVAR
  5
E7
102
{ACAD_REACTORS
330
A5
102
}
330
A5
100
DictionaryVariables
280
     0
  1
STANDARD
  0
DICTIONARYVAR
  5
E6
102
{ACAD_REACTORS
330
A5
102
}
330
A5
100
DictionaryVariables
280
     0
  1
STANDARD
  0
DICTIONARYVAR
  5
107
102
{ACAD_REACTORS
330
A5
102
}
330
A5
100
DictionaryVariables
280
     0
  1
Imperial24
  0
DICTIONARYVAR
  5
108
102
{ACAD_REACTORS
330
A5
102
}
330
A5
100
DictionaryVariables
280
     0
  1
Imperial24
  0
DICTIONARYVAR
  5
10A
102
{ACAD_REACTORS
330
A5
102
}
330
A5
100
DictionaryVariables
280
     0
  1
1
  0
DICTIONARYVAR
  5
10B
102
{ACAD_REACTORS
330
A5
102
}
330
A5
100
DictionaryVariables
280
     0
  1
15
  0
DICTIONARYVAR
  5
109
102
{ACAD_REACTORS
330
A5
102
}
330
A5
100
DictionaryVariables
280
     0
  1
0
  0
DICTIONARYVAR
  5
A7
102
{ACAD_REACTORS
330
A5
102
}
330
A5
100
DictionaryVariables
280
     0
  1
1
  0
DICTIONARY
  5
104
330
ED
100
AcDbDictionary
280
     1
281
     1
  3
ACAD_XREC_ROUNDTRIP
360
119
  0
DICTIONARY
  5
102
330
EC
100
AcDbDictionary
280
     1
281
     1
  3
ACAD_XREC_ROUNDTRIP
360
118
  0
DICTIONARY
  5
DF
330
6A
100
AcDbDictionary
280
     1
281
     1
  3
ACAD_ROUNDTRIP_2008_TABLESTYLE_CELLSTYLEMAP
360
117
  0
XRECORD
  5
119
102
{ACAD_REACTORS
330
104
102
}
330
104
100
AcDbXrecord
280
     1
102
DISPLAYNAME
  1
Imperial24
102
FLAGS
 90
        0
  0
XRECORD
  5
118
102
{ACAD_REACTORS
330
102
102
}
330
102
100
AcDbXrecord
280
     1
102
DISPLAYNAME
  1
Imperial24
102
FLAGS
 90
        0
  0
CELLSTYLEMAP
  5
117
102
{ACAD_REACTORS
330
DF
102
}
330
DF
100
AcDbCellStyleMap
 90
        3
300
CELLSTYLE
  1
TABLEFORMAT_BEGIN
 90
        5
170
     1
 91
        0
 92
    32768
 62
   257
 93
        1
300
CONTENTFORMAT
  1
CONTENTFORMAT_BEGIN
 90
        0
 91
        0
 92
        4
 93
        0
300

 40
0.0
140
1.0
 94
        5
 62
     0
340
11
144
0.25
309
CONTENTFORMAT_END
171
     1
301
MARGIN
  1
CELLMARGIN_BEGIN
 40
0.06
 40
0.06
 40
0.06
 40
0.06
 40
0.06
 40
0.06
309
CELLMARGIN_END
 94
        6
 95
        1
302
GRIDFORMAT
  1
GRIDFORMAT_BEGIN
 90
        0
 91
        1
 62
     0
 92
       -2
340
14
 93
        0
 40
0.045
309
GRIDFORMAT_END
 95
        2
302
GRIDFORMAT
  1
GRIDFORMAT_BEGIN
 90
        0
 91
        1
 62
     0
 92
       -2
340
14
 93
        0
 40
0.045
309
GRIDFORMAT_END
 95
        4
302
GRIDFORMAT
  1
GRIDFORMAT_BEGIN
 90
        0
 91
        1
 62
     0
 92
       -2
340
14
 93
        0
 40
0.045
309
GRIDFORMAT_END
 95
        8
302
GRIDFORMAT
  1
GRIDFORMAT_BEGIN
 90
        0
 91
        1
 62
     0
 92
       -2
340
14
 93
        0
 40
0.045
309
GRIDFORMAT_END
 95
       16
302
GRIDFORMAT
  1
GRIDFORMAT_BEGIN
 90
        0
 91
        1
 62
     0
 92
       -2
340
14
 93
        0
 40
0.045
309
GRIDFORMAT_END
 95
       32
302
GRIDFORMAT
  1
GRIDFORMAT_BEGIN
 90
        0
 91
        1
 62
     0
 92
       -2
340
14
 93
        0
 40
0.045
309
GRIDFORMAT_END
309
TABLEFORMAT_END
  1
CELLSTYLE_BEGIN
 90
        1
 91
        1
300
_TITLE
309
CELLSTYLE_END
300
CELLSTYLE
  1
TABLEFORMAT_BEGIN
 90
        5
170
     1
 91
        0
 92
        0
 62
   257
 93
        1
300
CONTENTFORMAT
  1
CONTENTFORMAT_BEGIN
 90
        0
 91
        0
 92
        4
 93
        0
300

 40
0.0
140
1.0
 94
        5
 62
     0
340
11
144
0.18
309
CONTENTFORMAT_END
171
     1
301
MARGIN
  1
CELLMARGIN_BEGIN
 40
0.06
 40
0.06
 40
0.06
 40
0.06
 40
0.06
 40
0.06
309
CELLMARGIN_END
 94
        6
 95
        1
302
GRIDFORMAT
  1
GRIDFORMAT_BEGIN
 90
        0
 91
        1
 62
     0
 92
       -2
340
14
 93
        0
 40
0.045
309
GRIDFORMAT_END
 95
        2
302
GRIDFORMAT
  1
GRIDFORMAT_BEGIN
 90
        0
 91
        1
 62
     0
 92
       -2
340
14
 93
        0
 40
0.045
309
GRIDFORMAT_END
 95
        4
302
GRIDFORMAT
  1
GRIDFORMAT_BEGIN
 90
        0
 91
        1
 62
     0
 92
       -2
340
14
 93
        0
 40
0.045
309
GRIDFORMAT_END
 95
        8
302
GRIDFORMAT
  1
GRIDFORMAT_BEGIN
 90
        0
 91
        1
 62
     0
 92
       -2
340
14
 93
        0
 40
0.045
309
GRIDFORMAT_END
 95
       16
302
GRIDFORMAT
  1
GRIDFORMAT_BEGIN
 90
        0
 91
        1
 62
     0
 92
       -2
340
14
 93
        0
 40
0.045
309
GRIDFORMAT_END
 95
       32
302
GRIDFORMAT
  1
GRIDFORMAT_BEGIN
 90
        0
 91
        1
 62
     0
 92
       -2
340
14
 93
        0
 40
0.045
309
GRIDFORMAT_END
309
TABLEFORMAT_END
  1
CELLSTYLE_BEGIN
 90
        2
 91
        1
300
_HEADER
309
CELLSTYLE_END
300
CELLSTYLE
  1
TABLEFORMAT_BEGIN
 90
        5
170
     1
 91
        0
 92
        0
 62
   257
 93
        1
300
CONTENTFORMAT
  1
CONTENTFORMAT_BEGIN
 90
        0
 91
        0
 92
        4
 93
        0
300

 40
0.0
140
1.0
 94
        2
 62
     0
340
11
144
0.18
309
CONTENTFORMAT_END
171
     1
301
MARGIN
  1
CELLMARGIN_BEGIN
 40
0.06
 40
0.06
 40
0.06
 40
0.06
 40
0.06
 40
0.06
309
CELLMARGIN_END
 94
        6
 95
        1
302
GRIDFORMAT
  1
GRIDFORMAT_BEGIN
 90
        0
 91
        1
 62
     0
 92
       -2
340
14
 93
        0
 40
0.045
309
GRIDFORMAT_END
 95
        2
302
GRIDFORMAT
  1
GRIDFORMAT_BEGIN
 90
        0
 91
        1
 62
     0
 92
       -2
340
14
 93
        0
 40
0.045
309
GRIDFORMAT_END
 95
        4
302
GRIDFORMAT
  1
GRIDFORMAT_BEGIN
 90
        0
 91
        1
 62
     0
 92
       -2
340
14
 93
        0
 40
0.045
309
GRIDFORMAT_END
 95
        8
302
GRIDFORMAT
  1
GRIDFORMAT_BEGIN
 90
        0
 91
        1
 62
     0
 92
       -2
340
14
 93
        0
 40
0.045
309
GRIDFORMAT_END
 95
       16
302
GRIDFORMAT
  1
GRIDFORMAT_BEGIN
 90
        0
 91
        1
 62
     0
 92
       -2
340
14
 93
        0
 40
0.045
309
GRIDFORMAT_END
 95
       32
302
GRIDFORMAT
  1
GRIDFORMAT_BEGIN
 90
        0
 91
        1
 62
     0
 92
       -2
340
14
 93
        0
 40
0.045
309
GRIDFORMAT_END
309
TABLEFORMAT_END
  1
CELLSTYLE_BEGIN
 90
        3
 91
        2
300
_DATA
309
CELLSTYLE_END
  0
ENDSEC
  0
SECTION
  2
ACDSDATA
 70
     2
 71
     8
  0
ACDSSCHEMA
 90
        0
  1
AcDb_Thumbnail_Schema
  2
AcDbDs::ID
280
    10
 91
        8
  2
Thumbnail_Data
280
    15
 91
        0
101
ACDSRECORD
 95
        0
 90
        1
  2
AcDbDs::TreatedAsObjectData
280
     1
291
     1
101
ACDSRECORD
 95
        0
 90
        2
  2
AcDbDs::Legacy
280
     1
291
     1
101
ACDSRECORD
  1
AcDbDs::ID
 90
        3
  2
AcDs:Indexable
280
     1
291
     1
101
ACDSRECORD
  1
AcDbDs::ID
 90
        4
  2
AcDbDs::HandleAttribute
280
     7
282
     1
  0
ACDSSCHEMA
 90
        1
  1
AcDbDs::TreatedAsObjectDataSchema
  2
AcDbDs::TreatedAsObjectData
280
     1
 91
        0
  0
ACDSSCHEMA
 90
        2
  1
AcDbDs::LegacySchema
  2
AcDbDs::Legacy
280
     1
 91
        0
  0
ACDSSCHEMA
 90
        3
  1
AcDbDs::IndexedPropertySchema
  2
AcDs:Indexable
280
     1
 91
        0
  0
ACDSSCHEMA
 90
        4
  1
AcDbDs::HandleAttributeSchema
  2
AcDbDs::HandleAttribute
280
     7
 91
        1
284
     1
  0
ACDSRECORD
 90
        0
  2
AcDbDs::ID
280
    10
320
22
  2
Thumbnail_Data
280
    15
 94
     1277
310
89504E470D0A1A0A0000000D49484452000001000000009208030000009D75E4A800000300504C54452128300000000000000000000000000000000000000000000000000000000000000000330000660000990000CC0000FF0033000033330033660033990033CC0033FF0066000066330066660066990066CC0066FF0099
310
000099330099660099990099CC0099FF00CC0000CC3300CC6600CC9900CCCC00CCFF00FF0000FF3300FF6600FF9900FFCC00FFFF3300003300333300663300993300CC3300FF3333003333333333663333993333CC3333FF3366003366333366663366993366CC3366FF3399003399333399663399993399CC3399FF33CC00
310
33CC3333CC6633CC9933CCCC33CCFF33FF0033FF3333FF6633FF9933FFCC33FFFF6600006600336600666600996600CC6600FF6633006633336633666633996633CC6633FF6666006666336666666666996666CC6666FF6699006699336699666699996699CC6699FF66CC0066CC3366CC6666CC9966CCCC66CCFF66FF0066
310
FF3366FF6666FF9966FFCC66FFFF9900009900339900669900999900CC9900FF9933009933339933669933999933CC9933FF9966009966339966669966999966CC9966FF9999009999339999669999999999CC9999FF99CC0099CC3399CC6699CC9999CCCC99CCFF99FF0099FF3399FF6699FF9999FFCC99FFFFCC0000CC00
310
33CC0066CC0099CC00CCCC00FFCC3300CC3333CC3366CC3399CC33CCCC33FFCC6600CC6633CC6666CC6699CC66CCCC66FFCC9900CC9933CC9966CC9999CC99CCCC99FFCCCC00CCCC33CCCC66CCCC99CCCCCCCCCCFFCCFF00CCFF33CCFF66CCFF99CCFFCCCCFFFFFF0000FF0033FF0066FF0099FF00CCFF00FFFF3300FF3333
310
FF3366FF3399FF33CCFF33FFFF6600FF6633FF6666FF6699FF66CCFF66FFFF9900FF9933FF9966FF9999FF99CCFF99FFFFCC00FFCC33FFCC66FFCC99FFCCCCFFCCFFFFFF00FFFF33FFFF66FFFF99FFFFCCFFFFFF0000000D0D0D1A1A1A2828283535354343435050505D5D5D6B6B6B787878868686939393A1A1A1AEAEAEBB
310
BBBBC9C9C9D6D6D6E4E4E4F1F1F1FFFFFF000000000000000000000000000000000000000000000000000000000000544354A8000001B84944415478DAED9CDB7683201045E7FF3F8A97F3636D5CA9359755A99ED09EB0F76B14862D5194812A00000000000000000000802DEA65645D1A1895CCC7BDBA0C7B89230534B701
310
B5614139AA420002CC77011502D204580DA810D046754B4B674340B30E8654084040A0009B0115024C023A42F2DC6FAF65C8D77E0420205180F3DB0A0210306470621A72AC65C8D57E04202053C069032A04640B3869406516B0138FEBB5030108288B019555C0859D29D8E59832D5D57A6AEC88A7B9A20200000000000000
310
000000007801ED09C7E643422746B6E17AD60AA60A585AF1FB858FD73336A7850A509D58F4B99CAA64018615AF6B118902644A9555A800D9D2E5152940BE252352A400E79219E5099075D95C9E006BFB2F5D606E019F5D00015902CCED773E52101029C05F200210F02F0474B7EB6D05941030F95F6072013C0510800086C2
310
6F29C0FE3A3CBD00F1492C4C80F9A3E8F40234F9BC80269F1AAB500165DAA3B932E706D7D04F5FFED4D9E13A921AF2F0B62CDF363A7F20A0BE72440EA5C8DCF4A0DC24297DE7FBFCB853FADDEFF7C70567893D36EFC866F2690276E8CC0D6C6CA00000000000000000000000000000377C0016E00C83C560D0F50000000049
310
454E44AE426082
  0
ENDSEC
  0
EOF
